Bass Tabs for Icarus Wings

ICARUS WINGS ---BASS TAB

intro
G|--------------------------
D|--------------------------
A|--0-----3-----------5-----
E|-----1-----3--0--1-----3--

INTRO RIFF 1

G|--------------------------------------
D|--------------------------------------
A|--------------------------------------
E|--5--5--3--5--5--3--5--5--8--7--5--3--

G|--------------------------------
D|--------------------------------
A|--------------------8--8--8--5--
E|--5--5--3--5--5--3--------------

INTRO RIFF 2

G|--------------------------------------------------
D|--------------------------------------------------
A|--0--0--0--0--0--0--0--0--0--0--3--2--3--5--3--2--
E|--------------------------------------------------

G|-----------------------------------------------------
D|-----------------------------------------------------
A|--0--0--0--0--0--0--0--0--0--0--3--2--3--5--3--5--7--
E|-----------------------------------------------------

G|--------------------------------------------------
D|--------------------------------------------------
A|--0--0--0--0--0--0--0--0--0--0--3--2--3--5--3--2--
E|--------------------------------------------------

G|-----------------------------------------------
D|-----------------------------------------------
A|--0--0--0--0--0--0--0--0--0--0-----3--2-----0--
E|--------------------------------1--------3-----

VERSE 1
G|--------------------------------------------------------------------------------
D|--------------------------------------------------------------------------------
A|--0--0--0--0--0--0--0--0--0--3--3--3--3--3--3--3--3-----------------------------
E|-----------------------------------------------------3--3--3--3--3--3--3--3--3--

G|-----------------------------------------------------------
D|-----------------------------------------------------------
A|--5--5--5--5--5--5--5--5--5--------------------------------
E|-----------------------------1--1--1--1--1--1--1--1--1--1--

G|-----------------
D|-----------------
A|-----3--2-----0--
E|--1--------3-----

BRIDGE

G|--------------------------------------------------------------------------------------
D|--------------------------------------------------------------------------------------
A|--5--5--5--5--------------3--3--3--3--------------5--5--5--5--------------3--3--3--3--
E|--------------3--3--3--3--------------1--1--1--1--------------3--3--3--3--------------

G|--------------------------------------------------------------------------------------
D|--------------------------------------------------------------------------------------
A|--5--5--5--5--------------3--3--3--3--------------5--5--5--5--------------2--2--2--2--
E|--------------3--3--3--3--------------1--1--1--1--------------3--3--3--3--------------

CHORUS

G|-----------------------------X2
D|-----------------------------
A|--0-----3-----------5--------
E|-----1-----3--0--1-----3-----

INTRO RIFF 2
VERSE
BRIDGE CHORUS


SOLO 1 CUT

G|--------------------------------------------X2
D|--------------------------------------------
A|--0--0--------0--0--------------------3-----
E|--------------------------1--1-----------3--

SOLOS 2 RYTHM

G|--------------------------------------------------------------------------------------------------X5
D|--------------------------------------------------------------------------------------------------
A|--0--0--0--0--0--0--0--0--------------------------3--3--3--3--3--3--3--3--------------------------
E|--------------------------1--1--1--1--1--1--1--1--------------------------3--3--3--3--3--3--3--3--



BRIDGE
CHORUS
FINAL CLOSE
G|--------------------------------------------------------------------------------------------------------
D|--------------------------------------------------------------------------------------------------------
A|-----0--0--0--0-----3--------0--0--0--0-----3--------0--0--0--0-----3--------0--0--0--0-----3--2-----0--
E|-----------------1-----------------------1-----------------------1-----------------------1--------3-----



tabs and chords, guitar tabs, music transcription, music technology, deep learning, music information retrieval, transcribe into tabs & chords, chordify, music renditions, songsterr, reverbnation, tabulature, bollywood chords, ultimate guitar, yousician, guitar lessons, acoustic guitar, electric guitar, guitar tuner, 911 tabs