Guitar Tabs for I Will Never Let You Down

(/) Slide Up  (\) Slide Down  (h) Hammer On  (p) Pull Off  (b) Bend (r) Release (v) Vibrato (x) Muted

Tabs for Song : 

Song lyrics here
E|-----------------------------------
B|-----9--9--10-9--------------------
G|--9-----------------8--------9-----
D|-----------------9-----9--11----11-
A|-----------------------------------
E|-----------------------------------

Song lyrics here
E|-----------------------------------------------------------
B|--------------9--10----------------------------------------
G|-----8--9--11-------9--9--11-13-11-9--8--8--9--11-9--8-----
D|--11----------------------------------------------------11-
A|-----------------------------------------------------------
E|-----------------------------------------------------------

Paste any tab in acousterr's tab maker and we'll play it !!!
Now supports capo and sound effects for vibrato/pull-off/hammer/bends/mutes etc !!! Checkout help section
tabs and chords, guitar tabs, music transcription, music technology, deep learning, music information retrieval, transcribe into tabs & chords, chordify, music renditions, songsterr, reverbnation, tabulature, bollywood chords, ultimate guitar, yousician, guitar lessons, acoustic guitar, electric guitar, guitar tuner, 911 tabs