Bass Tabs for I Will Follow You Into The Dark

(/) Slide Up  (\) Slide Down  (h) Hammer On  (p) Pull Off  (b) Bend (r) Release (v) Vibrato (x) Muted

Tabs for Song : I Will Follow You Into the Dark
G|--------------------------------------------------------------------------------------------------
D|--0--0--3--3--------3--2--0--0--3--3--------------0--0--3--3--------0-----------------3--3--3--3--
A|--------------1--1--------------------3--3--3--3--------------0--0-----3--1--1--1--1--------------
E|--------------------------------------------------------------------------------------------------

Verse:
Love of mine, someday you will die, but I'll be close behind; I'll follow you into the dark
In Catholic school, as vicious as Roman rule, I got my knuckles bruised by a lady in black
G|--------------------------------------------------
D|--3--3--3--2--0--0--0-----------------3--3--------
A|-----------------------3--1--1--1--1--------3--3--
E|--------------------------------------------------

No blinding light or tunnels to gates of white; just our hands clasped so tight, waiting for the hint of a spark
I held my tongue as she told me, "Son, fear is the heart of love," so I never went back
G|--------------------------------------------------
D|--3--3--3--2--0--0--0-----------------3--3--------
A|-----------------------3--1--1--1--1--------3--3--
E|--------------------------------------------------

Chorus:
If heaven and hell decide that they both are satisfied, illuminate the "no"s on their vacancy signs; if there's no one beside you when your soul embarks, then i will follow you into the dark
G|--------------------------------------------------------------------------------------------------
D|--0--0--3--3--------3--2--0--0--3--3--------------0--0--3--3--------0-----------------3--3--3--3--
A|--------------1--1--------------------3--3--3--3--------------0--0-----3--1--1--1--1--------------
E|--------------------------------------------------------------------------------------------------

Verse 3:
You and me have seen everything to see from Bangkok to Calgary, and the soles of your shoes
G|--------------------------------------------------
D|--3--3--3--2--0--0--0-----------------3--3--------
A|-----------------------3--1--1--1--1--------3--3--
E|--------------------------------------------------

are all worn down; the time for sleep is now - it's nothing to cry about, because we'll hold each other soon in the blackest of rooms
G|--------------------------------------------------------------------------------
D|--3--3--3--2--0--0--0-----------------3--3--------0--0--------------------------
A|-----------------------3--1--1--1--1--------3--3--------1--1--1--1--1--1--1--1--
E|--------------------------------------------------------------------------------

Final Chorus:
If heaven and hell decide that they both are satisfied; illluminate the "no"s on their vacancy signs; if there's no one beside you when your soul embarks, then i will follow you into the dark
G|--------------------------------------------------------------------------------------------------x-----
D|--0--0--3--3--------3--2--0--0--3--3--------------0--0--3--3--------0-----------------3--3--2--0--x--0--
A|--------------1--1--------------------3--3--3--3--------------0--0-----3--1--1--1--1--------------x-----
E|--------------------------------------------------------------------------------------------------x-----

I will follow you into the dark
G|-----x-----x-----
D|-----x-----x--3--
A|--1--x--1--x-----
E|-----x-----x-----

Paste any tab in acousterr's tab maker and we'll play it !!!
Now supports capo and sound effects for vibrato/pull-off/hammer/bends/mutes etc !!! Checkout help section
tabs and chords, guitar tabs, music contests, music covers, songsterr, reverbnation, renditions, tabulature, bollywood chords, ultimate guitar, yousician, guitar lessons, torrins, fender, gibson, acoustic guitar, electric guitar, youtube covers, gootar, guitar tuner, A-Z tabs, 911 tabs