Guitar Tabs for I Will Crumble - Wuthering Heights

(/) Slide Up  (\) Slide Down  (h) Hammer On  (p) Pull Off  (b) Bend (r) Release (v) Vibrato (x) Muted

Tabs for Song : 

Song lyrics here
E|--------------------------------------------------------------------------------------------------------
B|--------------------------------------------------------------------------------------------------------
G|-----------2-----------2-----------2-----------2-----1-----2-----1-----2-----1-----2-----1-----2-----2--
D|-----2--2--------2--2--------2--2--------2--2-----------2-----------2-----------2-----------2-----0-----
A|--0-----------0-----------0-----------0-----------------------------------------------------------------
E|--------------------------------------------------2-----------2-----------2-----------2-----------------

E|-----------4-----------4-----------4-----------4--
B|-----3--0--------3--0--------3--0--------3--0-----
G|--------------------------------------------------
D|--2-----------2-----------2-----------2-----------
A|--------------------------------------------------
E|--------------------------------------------------

E|-----------------------------------------------------------0-----------0-----------4-----------4--
B|-----------------------------------------------------------------------------3--0--------3--0-----
G|-----1-----2-----1-----2-----------2-----------2-----2--1--------2--1-----------------------------
D|--------2-----------2--------2--2--------2--2-----0-----------0-----------2-----------2-----------
A|--------------------------0-----------0-----------------------------------------------------------
E|--2-----------2-----------------------------------------------------------------------------------

Song lyrics here
E|-----------0-----------0-----------4-----------4-----------------------------------------------------------0--
B|-----------------------------3--0--------3--0-----------------------------------------------------------------
G|-----2--1--------2--1--------------------------------1-----2-----1-----2-----------2-----------2-----1--2-----
D|--0-----------0-----------2-----------2-----------------2-----------2--------2--2--------2--2-----0-----------
A|--------------------------------------------------------------------------0-----------0-----------------------
E|--------------------------------------------------2-----------2-----------------------------------------------

E|-----------0--
B|--------------
G|-----2--1-----
D|--0-----------
A|--------------
E|--------------

E|--0--0-----17----16----12----12----12----------------------------
B|--0--0--14----14----14----14----14----14-14-14-14-14-10h12-10h12-
G|--1--1-----------------------------------------------------------
D|--2--2-----------------------------------------------------------
A|--2--2-----------------------------------------------------------
E|--0--0-----------------------------------------------------------

E|-----------------
B|--14-------------
G|------9h11--9h11-
D|-----------------
A|-----------------
E|-----------------


B|--
G|--
D|--
A|--
E|--

Song lyrics here
E|--
B|--
G|--
D|--
A|--
E|--

Now supports capo and sound effects for vibrato/pull-off/hammer/bends/mutes etc !!! Checkout help section
tabs and chords, guitar tabs, music transcription, music technology, deep learning, music information retrieval, transcribe into tabs & chords, chordify, music renditions, songsterr, reverbnation, tabulature, bollywood chords, ultimate guitar, yousician, guitar lessons, acoustic guitar, electric guitar, guitar tuner, 911 tabs