Guitar Tabs for I Surrender - Vox Solo

    Like  a     ru   -   -   -    shing             wind
E|--------------------------------------------------------------------------
B|--------------------------------------------------------------------------
G|--10-10-9--9--7--7--7--7--7--7--------------------------------------------
D|--------------------------------10-10-10-10-10-10-10-10-10-10-10-10-10-10-
A|--------------------------------------------------------------------------
E|--------------------------------------------------------------------------
    Stir - ing  deep              wi         -     thin
E|--------------------------------------------------------------------------
B|--------------------------------------------------------------------------
G|--10-10-9--9--7--7--7--7--7--7--------------9--9--9--9--9--9--9--9--9--9--
D|--------------------------------10-10-10-10-------------------------------
A|--------------------------------------------------------------------------
E|--------------------------------------------------------------------------

    Lord  have  your  way              Lord   have  your  way
E|--------------------------------------------------------------------------
B|--------------------------------------------------------------------------
G|--10-10-9--9--7--7--7--7--7--7--7--7--10-10-9--9--7--7--7--7--7--7--7--7--
D|--------------------------------------------------------------------------
A|--------------------------------------------------------------------------
E|--------------------------------------------------------------------------

    In                me
E|--------------------------------------------------------------------------
B|--------------------------------------------------------------------------
G|--10-10-10-10-10-10-10-9--9--9--9--9--9--9--9--9--9--9--9--9--9--9--9--9--
D|--------------------------------------------------------------------------
A|--------------------------------------------------------------------------
E|--------------------------------------------------------------------------

tabs and chords, guitar tabs, music transcription, music technology, deep learning, music information retrieval, transcribe into tabs & chords, chordify, music renditions, songsterr, reverbnation, tabulature, bollywood chords, ultimate guitar, yousician, guitar lessons, acoustic guitar, electric guitar, guitar tuner, 911 tabs