Guitar Tabs for I Still Haven't Found What I'm Looking For

(/) Slide Up  (\) Slide Down  (h) Hammer On  (p) Pull Off  (b) Bend (r) Release (v) Vibrato (x) Muted

Tabs for Song : I Still Haven't Found What I'm Looking For
Album: The Joshua Tree

BPM : 101
Capo: 4th Fret

Reverb and Delay to taste

I have climbed the highest mountains...
E|-----------------------------------------4-----------------------------------------------4--------
B|--------5--5-----5--5-----------5--5--------5--5--------5--5-----5--5-----------5--5--------5--5--
G|-----2--------2--------2-----2--------2--------------2--------2--------2-----2--------2-----------
D|--------------------------------------------------------------------------------------------------
A|--0-----------------------0-----------------------0-----------------------0-----------------------
E|--------------------------------------------------------------------------------------------------

E|-----------------------------------------4-----------------------------------------------4--------
B|--------5--5-----5--5-----------5--5--------5--5--------5--5-----5--5-----------5--5--------5--5--
G|-----2--------2--------2-----2--------2--------------2--------2--------2-----2--------2-----------
D|--0-----------------------0-----------------------------------------------------------------------
A|--------------------------------------------------0-----------------------0-----------------------
E|--------------------------------------------------------------------------------------------------

But I still haven't found what I'm looking for
E|-----0--------------0-----------0--------
B|-----0--------------0-----------2--------
G|-----2--------------1-----------2--------
D|-----2--------------2-----------2--------
A|-----2--------------2-----------0--------
E|-----0--------------0--------------------

Lyrics:
I have climbed the highest mountains
I have run through the fields
Only to be with you
Only to be with you
I have run I have crawled
I have scaled these city walls
These city walls
Only to be with you
But I still haven't found
What I'm looking for
But I still haven't found
What I'm looking for
I have kissed honey lips
Felt the healing in the fingertips
It burned like fire
This burning desire
I have spoke with the tongue of angels
I have held the hand of a devil
It was warm in the night
I was cold as a stone
But I still haven't found
What I'm looking for
But I still haven't found
What I'm looking for
I believe in the Kingdom come
Then all the colors will bleed into one
Bleed into one
But yes, I'm still running
You broke the bonds
and you loosened chains
carried the cross of my shame, of my shame
You know I believe it
But I still haven't found
What I'm looking for
But I still haven't found
What I'm looking for
But I still haven't found
What I'm looking for
But I still haven't found
What I'm looking for

tabs and chords, guitar tabs, music transcription, music technology, deep learning, music information retrieval, transcribe into tabs & chords, chordify, music renditions, songsterr, reverbnation, tabulature, bollywood chords, ultimate guitar, yousician, guitar lessons, acoustic guitar, electric guitar, guitar tuner, 911 tabs