Guitar Tabs for I Saw Mommy Kissing Santa Claus

(/) Slide Up  (\) Slide Down  (h) Hammer On  (p) Pull Off  (b) Bend (r) Release (v) Vibrato (x) Muted

Tabs for Song : 
BPM : 120

E|--------------------------------------------------------------------------------------------------
B|--------------------------------------------------------------------------------------1--1--1--1--
G|--------0--0-----------0--------------------------------------------------------------------------
D|--2--2--------3--2--3--------------------2--2--2--2--------------0-----0--------------------------
A|-----------------------------3--3--3--3--------------2--2--2--2-----------3--3--3--3--------------
E|--------------------------------------------------------------------------------------------------
 Julen kommer førend vi ved lille Peter gemmer på en julehemlighed men lidt må han fortælle sådan 
E|--------------------------------------------------------------
B|--0--0-----------------------------0--0--0--0-----------------
G|--------0-----2--------------------------------2--2-----------
D|-----------2--------2--0--0--0--0--------------------3--2--0--
A|--------------------------------------------------------------
E|--------------------------------------------------------------
   er jo nemlig børn og derfor visker Peter til sin gamle teddybjør
E|-----------------------------------------------------------------------------------------------
B|-----------------------1--0-----------------------------------------------------------------0--
G|-----------------0--2-----------0--------2--0--------2--0--------------------------------2-----
D|-----------0--2--------------------2-----------2-----------2-----------3--2--0--0-----0--------
A|-----3--------------------------------------------3-----------3--2-----------------4-----------
E|-----------------------------------------------------------------------------------------------
     Jeg så julemanden kysse......
E|--------------------------------------------------------------------------------------------------------
B|-----------------------------------------------0--------------------------------------1--0--------------
G|--2--0-----2--0-----------------0--2--1--2--3-----2--------------0--------------0--2-----------0--------
D|--------4-----------2--0--2--4-----------------------3--2--0--------------0--2--------------------2-----
A|--------------------------------------------------------------------3-----------------------------------
E|--------------------------------------------------------------------------------------------------------
   artig lille dreng......
E|-----------------------------------------------------------------------------------------------------------------
B|--------------------------------------0--1--1--1--3--0--------------------------------------1-----1-----3-----1--
G|--2--0--------2--0--------2-----1--2--------------------------2--0--------------------0--2-----2-----------------
D|--------2-----------2--------------------------------------4--------3--2--0-----2--3-----------------------------
A|-----------3-----------3-----------------------------------------------------------------------------------------
E|-----------------------------------------------------------------------------------------------------------------
   Hun blev ikke vred....
E|--
B|--
G|--
D|--
A|--
E|--

Use manual mode to free up cursor. Paste any tab in acousterr tab maker and we'll play it !!!
tabs and chords, guitar tabs, music transcription, music technology, deep learning, music information retrieval, transcribe into tabs & chords, chordify, music renditions, songsterr, reverbnation, tabulature, bollywood chords, ultimate guitar, yousician, guitar lessons, acoustic guitar, electric guitar, guitar tuner, 911 tabs