I Need You More - Guitar Tabs

(/) Slide Up  (\) Slide Down  (h) Hammer On  (p) Pull Off  (b) Bend (r) Release (v) Vibrato (x) Muted

Tabs for Song : 
BPM : 230
                            +CODA+
Song lyrics here 
E|-----------------0-----0------------------------------------0--------------0----------------------------
B|--------1--1-----------------------1-----1--------------3--------4--3--1--------3--3-----1-----3--------
G|-----------------------------------0-----0--------------------------------------------------------------
D|--------2-----------2-----------2-----------2-----------2-----------2-----------3-----------3-----------
A|--3-----------------------3-----------------------3-----------------------------------------------------
E|--------------3-----------------------3-----------------------3-----------1-----------1-----------1-----

E|-----------------------------0-----------------------------------0--1-----1--1-----0-----0--
B|--1--0-----3-----3-----------------3--------------------0--1--3-----------------------------
G|--------------------------------------------------0--2--------------2-----2--2-----0-----0--
D|--3-----------3-----------3-----------3-----------3-----------3-----------3-----------3-----
A|--------------------------------2-----------------------2-----------------------------------
E|--------1-----------3-----------------------3-----------------------1-----------1-----------

E|--------------------0--0--------0--0-----0--0--------3--0-----------0-----0-----------------0--1--
B|--------3--1-----3--0--1--------3--1-----0--1--------------3--1--3--------1--------3--------0--3--
G|--------0-----------0--2--------2--2-----2--2-----------------------------2-----------------0--2--
D|--------------------------------2-----------2-----------2-----------2-----3-----------------------
A|--3-----------2-----------0-----------------------------------------------3-----------------------
E|--------------------------------------0-----------3-----------0-----------1-----------------------

E|--------------------0--0-----------0-----------3--------
B|--------1--1-----3-----1-----------------1-----3--------
G|--------2-----------2--------------------------0--------
D|--0-----------------------------2-----------2--0--------
A|--------------0-----------3--------------------2--------
E|--------------------------------------3--------3--------

Ending one.                   Back to start...
E|-----------------------------0--------------------------------0--0--
B|--3-----1-----0-----1--------------1-----------------0---1/3--------
G|-----0--------------------------------------------4-----------------
D|--0-----------------------2-----------2--------3--------------------
A|-----------0--2-----3-----------------------------------------------
E|--------3-----------------------3-----------3-----------------------

Ending two.
E|--------------------------------------------------------15-------------------------
B|--------------3-----------1-----------0-----------------------17-------------------
G|--------------------0-----------0-----------0-----------------------16-------------
D|--------------3-----------2-----------0-----------------------------------17-------
A|--------------------------------------------------------------------------------15-
E|--------------------------------------------------------------------------------15-

About More Than Words Can Say : The power ballad became a No. 2 hit in the United States . It was released in September 1990 as the second single from their debut eponymous album . Only 1,500 songs have achieved Million-air status among the 4.5 million songs by 300,000 BMI represented artists . One million performances is the equivalent of approximately 50,000 broadcast hours, or more than 5.7 years of continuous airplay . "More Than Words Can Say" was written, arranged, and co-produced by former Sheriff vocalist Freddy Curci and guitarist Steve DeMarchi . Curci recorded the vocals in Denny DeMarch It was released in 1990. It was released as part of album Alias. The track was release in 1990. The track has an affiliation to the band(s) - Alias.

About Fever Dream (Alias album) : American hip hop musician Alias is released on Anticon in 2011 . It was released Fever Dream received an average score of 74% based on 9 reviews . Metacriticritic, which assigns a weighted average score out of 100 to Ali Maloney of The Skinny gave the album 4 stars out of 5 . Ali Malony gave the band 4 stars of 5, describing it as "a suave cocktail of rolling snares, haunting synth structures, downtempo dub and jittering slices It had a contribution from notable artists like Alias. It had an affiliation to bands - Fever Dream. Its music is influenced by genres - instrumental hip hop.

tabs and chords, guitar tabs, music transcription, music technology, deep learning, music information retrieval, transcribe into tabs & chords, chordify, music renditions, songsterr, reverbnation, tabulature, bollywood chords, ultimate guitar, yousician, guitar lessons, acoustic guitar, electric guitar, guitar tuner, 911 tabs