Guitar Tabs for I Miss You

(/) Slide Up  (\) Slide Down  (h) Hammer On  (p) Pull Off  (b) Bend (r) Release (v) Vibrato

I Miss You (???)

Song lyrics here
E|--------------------------------------------------------------------------------------------------
B|--------------------------------------------------------------------------------------------------
G|--------------------------------------------------------------------------------------------------
D|-----------------3-----2--------------2-----0--2--3-----------7-----------------5---5-------------
A|-----------1--------------------------------------------------------------------------------------
E|-----1--------------------------------------------------------------------------------------------

E|--------------------------------------------------------------------------------------------------
B|-----------------------------------------------------------1-----1-----3--------------------------
G|-----------------------------------------------------2-----------------------------3-----2--------
D|--------3-----5-----------------3--3--------------------------------------------------------------
A|--------------------------------------------------------------------------------------------------
E|--------------------------------------------------------------------------------------------------

E|--------------------------------------------------------------------------------------------------
B|--------------------------------------------------------------------------------------------------
G|--------------------------------------------------------------------------------------------7------
D|-----5-----------------------3-----2-----------2-----0--2--3--------------7-----------------------
A|-----------------------3--------------------------------------------------------------------------
E|--------------------------------------------------------------------------------------------------

E|--------------------------------------------------------------------------------------------------
B|--------------------------------------------------------------------------------------------------
G|-----5--------------------------------5--------------9-----------7-----------7-----5--------------
D|-----------------8-----------7-----------------------------------------------------------8--------
A|--------------------------------------------------------------------------------------------------
E|--------------------------------------------------------------------------------------------------

E|--------------------------------------------------------------------------------------------------
B|--------------------------------------------------------------------------------------------------
G|--------------------------------------------------------------------------------------------------
D|-----7--------------5-----------------------------------------------------------------------------
A|--------------------------------------------------------------------------------------------------
E|--------------------------------------------------------------------------------------------------

E|--------------------------------------------------------------------------------------------------
B|--------------------------------------------------------------------------------------------------
G|--------------------------------------------------------------------------------------------------
D|--------------------------------------------------------------------------------------------------
A|--------------------------------------------------------------------------------------------------
E|--------------------------------------------------------------------------------------------------

E|--------------------------------------------------------------------------------------------------
B|--------------------------------------------------------------------------------------------------
G|--------------------------------------------------------------------------------------------------
D|--------------------------------------------------------------------------------------------------
A|--------------------------------------------------------------------------------------------------
E|--------------------------------------------------------------------------------------------------


Add more lines by placing cursor below and adding notes
tabs and chords, guitar tabs, music contests, music covers, songsterr, reverbnation, renditions, tabulature, bollywood chords, ultimate guitar, yousician, guitar lessons, torrins, fender, gibson, acoustic guitar, electric guitar, youtube covers, gootar, guitar tuner, A-Z tabs, 911 tabs