Bass Tabs for I Love Rock 'n Roll - Joan Jett & The Blackhearts

(/) Slide Up  (\) Slide Down  (h) Hammer On  (p) Pull Off  (b) Bend (r) Release (v) Vibrato (x) Muted

Tabs for Song : 

Song lyrics here
G|--------------------------------------------------------------------------------------------------------
D|--------------------------------------------------------------------------------------------------------
A|--7--7-----7--7-----------------------7--7-----7--7--------------7-----------7--5-----------------------
E|--------------------5--5-----7--7--------------------5--5-----7--------------------7-----5--3-----0--0--

            Said can I take you home where we can be alone             Till he was with me, yeah, me, singin'
G|--------------------------------------------------------------------------------------------------
D|--------------------------------------------------------------------------------------------------
A|-----------------------------7--7-----------------------------------------------------------------
E|--7--7-----5--5-----7--7--------------5-----------------------------------7--7--7--7--7--7--7--7--

I love rock n' roll
G|-----------------------------------------------------------------------
D|-----------------------------------------------------------------------
A|--7--7-----7--7-----------------------7--7-----7--7-----------------7--
E|--------------------5--5-----7--7-----------------------5--5-----7-----


[Verse 1]
I saw him dancin' there by the record machine
I knew he must a been about seventeen
The beat was goin' strong
Playin' my favorite song
An' I could tell it wouldn't be long
Till he was with me, yeah, me
And I could tell it wouldn't be long
Till he was with me, yeah, me, singin'

[Hook]
I love rock n' roll
So put another dime in the jukebox, baby
I love rock n' roll
So come and take your time and dance with me
Ow!

[Verse 2]
He smiled so I got up and asked for his name
That don't matter, he said
Cause it's all the same
Said can I take you home where we can be alone
An' next we were movin' on
He was with me, yeah me
Next we were movin' on
He was with me, yeah me, singin'

[Hook]

[Verse 3]
Said can I take you home where we can be alone
Next we were movin' on
He was with me, yeah me
An we'll be movin' on
An' singin' that same old song
Yeah with me, singin'

[Hook x5]
tabs and chords, guitar tabs, music transcription, music technology, deep learning, music information retrieval, transcribe into tabs & chords, chordify, music renditions, songsterr, reverbnation, tabulature, bollywood chords, ultimate guitar, yousician, guitar lessons, acoustic guitar, electric guitar, guitar tuner, 911 tabs