Guitar Tabs for E Min Pent

E MIN PENT:

1)

E|--------------------------------12-15----
B|--------------------------12-15----------
G|--------------------12-14----------------
D|--------------12-14----------------------
A|--------12-14----------------------------
E|--12-15----------------------------------

2)

E|--------------------------------15-17----
B|--------------------------15-17----------
G|--------------------14-16----------------
D|--------------14-17----------------------
A|--------14-17----------------------------
E|--15-17----------------------------------

3)

E|--------------------------------5--7-----
B|--------------------------5--8-----------
G|--------------------4--7-----------------
D|--------------5--7-----------------------
A|--------5--7-----------------------------
E|--5--7-----------------------------------

4)

E|--------------------------------7--10----
B|--------------------------8--10----------
G|--------------------7--9-----------------
D|--------------7--9-----------------------
A|--------7--10----------------------------
E|--7--10----------------------------------

5)

E|--------------------------------10-12----
B|--------------------------10-12----------
G|--------------------9--12----------------
D|--------------9--12----------------------
A|--------10-12----------------------------
E|--10-12----------------------------------

tabs and chords, guitar tabs, music transcription, music technology, deep learning, music information retrieval, transcribe into tabs & chords, chordify, music renditions, songsterr, reverbnation, tabulature, bollywood chords, ultimate guitar, yousician, guitar lessons, acoustic guitar, electric guitar, guitar tuner, 911 tabs