Guitar Tabs for I Like You So Much You'll Know It

(/) Slide Up  (\) Slide Down  (h) Hammer On  (p) Pull Off  (b) Bend (r) Release (v) Vibrato (x) Muted

Tabs for Song : 

Song lyrics here
E|-----------x-----------------------0-----------x-----------x-----------------------------------------2--
B|---2\3-----x-----------3------2\3-----------3--x-----2-----x-----------0-----2-----3--------5--4--5-----
G|-----------x-----------------------------------x--------2--x-----2--3-----------------------------------
D|-----------x-----------------------------------x-----------x--------------------------------------------
A|-----------x-----------------------------0-----x-----------x--------------------------------------------
E|-----------x-----3-----------------------------x-----------x--------------------------------------------

E|-----x-----------------------x--0-----x------2\3-----2--x-----0--------x--------------------0--------x--
B|--3--x-----2------2\3-----2--x-----3--x-----------------x-----------3--x--2-----3-----------------3--x--
G|-----x-----------------------x--------x-----------------x--------------x-----------2-----------------x--
D|-----x-----------------------x--------x-----------------x--------------x-----------------------------x--
A|-----x-----------------------x--------x-----------------x--------------x-----------------------------x--
E|-----x-----------------------x--------x-----------------x--------------x-----------------------------x--

E|---0\2--
B|--------
G|--------
D|--------
A|--------
E|--------

E|--
B|--
G|--
D|--
A|--
E|--

Song lyrics here
E|--
B|--
G|--
D|--
A|--
E|--

Paste any tab in acousterr's tab maker and we'll play it !!!
Now supports capo and sound effects for vibrato/pull-off/hammer/bends/mutes etc !!! Checkout help section
tabs and chords, guitar tabs, music transcription, music technology, deep learning, music information retrieval, transcribe into tabs & chords, chordify, music renditions, songsterr, reverbnation, tabulature, bollywood chords, ultimate guitar, yousician, guitar lessons, acoustic guitar, electric guitar, guitar tuner, 911 tabs