Guitar Tabs for I Left My Towel At My Friends House Once

(/) Slide Up  (\) Slide Down  (h) Hammer On  (p) Pull Off  (b) Bend (r) Release (v) Vibrato (x) Muted

Tabs for Song : BPM: 120
 

E|--------------------------------------------------------------------------------------------------
B|--------15----------15----------10----------10----------8-----------8-----------8-----------8-----
G|-----------16----------16----------11----------11----------9-----------9-----------9-----------9--
D|-----14----------14----------9-----------9-----------7-----------7-----------6-----------6--------
A|--15----------------------10----------10----------8-----------------------8-----------8-----------
E|--------------------------------------------------------------------------------------------------

E|--------------------------------------------------------------------------------------------------
B|--------15----------15----------10----------10----------8-----------8-----------8-----------8-----
G|-----------16----------16----------11----------11----------9-----------9-----------9-----------9--
D|-----14----------14----------9-----------9-----------7-----------7-----------6-----------6--------
A|--15----------------------10----------10----------8-----------------------8-----------8-----------
E|--------------------------------------------------------------------------------------------------

E|--------------------------------------------------------------------------------------------------
B|--------15-------15-15-15-------10-------10-10-10-------8--------8--8--8--------8--------8--8--8--
G|--------16-------16-16-16-------11-------11-11-11-------9--------9--9--9--------9--------9--9--9--
D|--------14-------14-14-14-------9--------9--9--9--------7--------7--7--7--------6--------6--6--6--
A|--------15-------15-15-15-------10-------10-10-10-------8--------8--8--8--------8--------8--8--8--
E|--------------------------------------------------------------------------------------------------

E|--------------------------------------------------------------------------------------------------
B|--------15-------15-15-15-------10-------10-10-10-------8--------8--8--8--------8--------8--8--8--
G|--------16-------16-16-16-------11-------11-11-11-------9--------9--9--9--------9--------9--9--9--
D|--------14-------14-14-14-------9--------9--9--9--------7--------7--7--7--------6--------6--6--6--
A|--------15-------15-15-15-------10-------10-10-10-------8--------8--8--8--------8--------8--8--8--
E|--------------------------------------------------------------------------------------------------
Long drive home...
E|--------------------------------------------------------------------------------------------------
B|--------3--------3--3--3--------10-------10-10-10-------8--------8--8--8--------8--------8--8--8--
G|--------4--------4--4--4--------11-------11-11-11-------9--------9--9--9--------9--------9--9--9--
D|--------2--------2--2--2--------9--------9--9--9--------7--------7--7--7--------6--------6--6--6--
A|--------3--------3--3--3--------10-------10-10-10-------8--------8--8--8--------8--------8--8--8--
E|--------------------------------------------------------------------------------------------------
Can't help but feeling...
E|--------------------------------------------------------------------------------------------------
B|--------3--------3--3--3--------10-------10-10-10-------8--------8--8--8--------8--------8--8--8--
G|--------4--------4--4--4--------11-------11-11-11-------9--------9--9--9--------9--------9--9--9--
D|--------2--------2--2--2--------9--------9--9--9--------7--------7--7--7--------6--------6--6--6--
A|--------3--------3--3--3--------10-------10-10-10-------8--------8--8--8--------8--------8--8--8--
E|--------------------------------------------------------------------------------------------------
It's nobody's fault...
E|--------------------------------------------------------------------------------------------------
B|--------3--------3--3--3--------10-------10-10-10-------8--------8--8--8--------8--------8--8--8--
G|--------4--------4--4--4--------11-------11-11-11-------9--------9--9--9--------9--------9--9--9--
D|--------2--------2--2--2--------9--------9--9--9--------7--------7--7--7--------6--------6--6--6--
A|--------3--------3--3--3--------10-------10-10-10-------8--------8--8--8--------8--------8--8--8--
E|--------------------------------------------------------------------------------------------------
There's nothing you can do...
E|--------------------------------------------------------------------------------------------------
B|--------3--------3--3--3--------10-------10-10-10-------8--------8--8--8--------8--------8--8--8--
G|--------4--------4--4--4--------11-------11-11-11-------9--------9--9--9--------9--------9--9--9--
D|--------2--------2--2--2--------9--------9--9--9--------7--------7--7--7--------6--------6--6--6--
A|--------3--------3--3--3--------10-------10-10-10-------8--------8--8--8--------8--------8--8--8--
E|--------------------------------------------------------------------------------------------------

E|--------------------------------------------------------------------------------------------------
B|--------15-------15-15-10----------10-------10----------8--------8--8--8-----------8--------8-----
G|--------16-------16-16-11----------11-------11----------9--------9--9--9-----------9--------9-----
D|--------14-------14-14-9-----------9--------9-----------7--------7--7--6-----------6--------6-----
A|--------15-------15-15-10----------10-------10----------8--------8--8--8-----------8--------8-----
E|--------------------------------------------------------------------------------------------------

E|-----------------------------------------------------------------------------------------------
B|--------15-------15-15-10----------10-------10----------8--------8--8--8-----------8--------8--
G|--------16-------16-16-11----------11-------11----------9--------9--9--9-----------9--------9--
D|--------14-------14-14-9-----------9--------9-----------7--------7--7--6-----------6--------6--
A|--------15-------15-15-10----------10-------10----------8--------8--8--8-----------8--------8--
E|-----------------------------------------------------------------------------------------------

E|--------------------------------------------------------------------------------------------------------
B|-----15----15----15-15----15----15----15-15----15----------10----------10----------8-----------8--------
G|-----16----16----16-16----16----16----16-16----16-------------11----------11----------9-----------9-----
D|-----14----14----14-14----14----14----14-14----14-------9-----------9-----------7-----------6-----------
A|-----15----15----15-15----15----15----15-15----15----10----------10----------8-----------8--------------
E|--------------------------------------------------------------------------------------------------------

E|-----------------------------------------------------------------------------------------------
B|-----15-------15-15-15----------15-------15----------10----------10----------8-----------8-----
G|-----16-------16-16-16----------16-------16-------------11----------11----------9-----------9--
D|-----14-------14-14-14----------14-------14-------9-----------9-----------7-----------6--------
A|-----15-------15-15-15----------15-------15----10----------10----------8-----------8-----------
E|-----------------------------------------------------------------------------------------------
And all the things you say...
E|-----------------------------------------------------------------------------------------------
B|--------3-----------3-----------10----------10----------8-----------8-----------8-----------8--
G|-----------4-----------------------11----------------------9-----------------------9-----------
D|-----2-----------2-----------9-----------------------7-----------------------6-----------------
A|--3-----------------------10-------------10-------8--------------8--------8--------------8-----
E|-----------------------------------------------------------------------------------------------
But please don't think...
E|--------------------------------------------------------------------------------------------------
B|-----------3-----------3-----------10----------10----------8-----------8-----------8-----------8--
G|--------------4-----------------------11----------------------9-----------------------9-----------
D|--------2-----------2-----------9-----------------------7-----------------------6-----------------
A|-----3-----------------------10-------------10-------8--------------8--------8--------------8-----
E|--------------------------------------------------------------------------------------------------
When you're alone and scared...
E|--------------------------------------------------------------------------------------------------
B|-----------15----------15----------10----------10----------8-----------8-----------8-----------8--
G|--------------16----------------------11----------------------9-----------------------9-----------
D|--------14----------14----------9-----------------------7-----------------------6-----------------
A|-----15----------------------10-------------10-------8--------------8--------8--------------8-----
E|--------------------------------------------------------------------------------------------------
I'm trying the hardest...
E|-----------------------------------------------------------------------------------------------------
B|-----------15----------15----------10----------10----------8-----------8-----------8-----8--8--8--8--
G|--------------16----------------------11----------------------9-----------------------9--9--9--9--9--
D|--------14----------------------9-----------------------7-----------------------6--------6--6--6--6--
A|-----15-------------15-------10-------------10-------8--------------8--------8-----------8--8--8--8--
E|-----------------------------------------------------------------------------------------------------

E|--------------------------------------------------------------------------------------------------
B|--3-----------3--3--------10----------10-10-------8-----------8--8--------8-----------8--8--------
G|--4-----------4--4--------11----------11-11-------9-----------9--9--------9-----------9--9--------
D|--2-----------2--2--------9-----------9--9--------7-----------7--7--------6-----------6--6--------
A|--3-----------3--3--------10----------10-10-------8-----------8--8--------8-----------8--8--------
E|--------------------------------------------------------------------------------------------------

E|--------------------------------------------------------------------------------------------------
B|--3-----------3--3--------10----------10-10-------8-----------8--8--------8-----------8--8--------
G|--4-----------4--4--------11----------11-11-------9-----------9--9--------9-----------9--9--------
D|--2-----------2--2--------9-----------9--9--------7-----------7--7--------6-----------6--6--------
A|--3-----------3--3--------10----------10-10-------8-----------8--8--------8-----------8--8--------
E|--------------------------------------------------------------------------------------------------

E|--------------------------------------------------------------------------------------------------
B|--15----15----15----15-10----10----10-10-10-10----8-----8-----8-----8--8-----8-----8--8--8--8-----
G|--16----16----16----16-11----11----11-11-11-11----9-----9-----9-----9--9-----9-----9--9--9--9-----
D|--14----14----14----14-9-----9-----9--9--9--9-----7-----7-----7-----7--6-----6-----6--6--6--6-----
A|--15----15----15----15-10----10----10-10-10-10----8-----8-----8-----8--8-----8-----8--8--8--8-----
E|--------------------------------------------------------------------------------------------------

E|-----------------------------------------------------------------------------------------------------------
B|--15----15----15----15-10----10----10-10-10-10----8-----8-----8-----8--8-----8-----8--8--8--8-----15-------
G|--16----16----16----16-11----11----11-11-11-11----9-----9-----9-----9--9-----9-----9--9--9--9-----16-------
D|--14----14----14----14-9-----9-----9--9--9--9-----7-----7-----7-----7--6-----6-----6--6--6--6-----14-------
A|--15----15----15----15-10----10----10-10-10-10----8-----8-----8-----8--8-----8-----8--8--8--8-----15-------
E|-----------------------------------------------------------------------------------------------------------

Paste any tab in acousterr's tab maker and we'll play it !!!
Now supports capo and sound effects for vibrato/pull-off/hammer/bends/mutes etc !!! Checkout help section
tabs and chords, guitar tabs, music transcription, music technology, deep learning, music information retrieval, transcribe into tabs & chords, chordify, music renditions, songsterr, reverbnation, tabulature, bollywood chords, ultimate guitar, yousician, guitar lessons, acoustic guitar, electric guitar, guitar tuner, 911 tabs