Guitar Tabs for I Know (intro) - Liveloud Cfc-youth For Christ

(/) Slide Up  (\) Slide Down  (h) Hammer On  (p) Pull Off  (b) Bend (r) Release (v) Vibrato (x) Muted

Tabs for Song : 

(play 4 times)
E|-----------------------------------------------------
B|--5--5--5--4--4--4-----------------------------------
G|--------------------4--4--4--6--6--6-----------------
D|---------------------------------------6h7--6--------
A|-----------------------------------------------7-----
E|-----------------------------------------------------


(alternate version)
(Play 4 times)

E|--------------------------------------------------
B|--10-10-10-9--9--9--------------------------------
G|--------------------9--9--9--11-11-11-------------
D|--------------------------------------11h12-11----
A|-----------------------------------------------12-
E|--------------------------------------------------

(play twice)
E|--12----12----14----14----12----12----11h12-11----
B|-----12----12----12----12----12----12----------12-
G|--------------------------------------------------
D|--------------------------------------------------
A|--------------------------------------------------
E|--------------------------------------------------

E|--14----14----16----16----14----14----16-12-
B|-----12----12----12----12----12----12-------
G|--------------------------------------------
D|--------------------------------------------
A|--------------------------------------------
E|--------------------------------------------

E|--19-14----------14-19-14----------14-16-16/17-------------------
B|--------17-16-17----------17-16-17-------------17-16-------------
G|-----------------------------------------------------18-16-------
D|-----------------------------------------------------------18\14-
A|-----------------------------------------------------------------
E|-----------------------------------------------------------------

Paste any tab in acousterr's tab maker and we'll play it !!!
Now supports capo and sound effects for vibrato/pull-off/hammer/bends/mutes etc !!! Checkout help section
tabs and chords, guitar tabs, music contests, music covers, songsterr, reverbnation, renditions, tabulature, bollywood chords, ultimate guitar, yousician, guitar lessons, torrins, fender, gibson, acoustic guitar, electric guitar, youtube covers, gootar, guitar tuner, A-Z tabs, 911 tabs