I Just Can't Stop Loving You - Michael Jackson - Guitar Tabs

Vocals
    
                                                                                                                                                                                                                                                                                                                                                                                                                                                                                                                                                                                                                                                                                                                                                                                                                                                                                                                                                                                                                                                                                                                                                                                              
E|-----------------0-------|---------------0-------|
B|--1-----1--3-------------|1-----1--3-------------|
G|-----0-------------------|---0-------------------|
D|-------------------------|-----------------------|
A|-------------------------|-----------------------|
E|-------------------------|-----------------------|

    
                                                                                                                                                                                                                                                                                                                                                                                                                                                                                                                                                                                                 
E|----------------------------|
B|--------1--3----------------|
G|--------------3--3----------|
D|----------------------------|
A|----------------------------|
E|----------------------------|

    
                                                                                                                                                                                                                                                                                                                                                                                                                                                                                                                                                                                                                                                                                                                                                                                                                                                                                                                                                                                                                                                                                                                                                                                              
E|-----------------0-------|---------------0-------|
B|--1-----1--3-------------|1-----1--3-------------|
G|-----0-------------------|---0-------------------|
D|-------------------------|-----------------------|
A|-------------------------|-----------------------|
E|-------------------------|-----------------------|

    
                                                                                                                                                                                                                                                                                                                                                                                                                                                                                                                                                                                                                                                                                                                                                                                                                                                                                                                                                                                                                                                                                                                                                                                              
E|-----3--3--3----------------|-----------------------|
B|-----------------3--3-------|---------------1-------|
G|----------------------------|-----------------------|
D|----------------------------|-----------------------|
A|----------------------------|-----------------------|
E|----------------------------|-----------------------|

    
                                                                                                                                                                                                                                                                                                                                                                                                                                                                                                                                                                                                                                                                                                                                                                                                                                                                                                                                                                                                                                                                                                                                                                                              
E|--3-----1-----0----------------|3-----1-----0----------------|
B|--------------------3--------1-|------------------3----------|
G|-------------------------------|-----------------------------|
D|-------------------------------|-----------------------------|
A|-------------------------------|-----------------------------|
E|-------------------------------|-----------------------------|

    
                                                                                                                                                                                                                                                                                                                                                                                                                                                                                                                                                                                                                                                                                                                                                                                                                                                                                                                                                                                                                                                                                                                                                                                              
E|--0--1--0--1--0----------|-----------------------|
B|-----------------1-----1-|---------------1-------|
G|--------------------1----|-----------------------|
D|-------------------------|-----------------------|
A|-------------------------|-----------------------|
E|-------------------------|-----------------------|

    
                                                                                                                                                                                                                                                                                                                                                                                                                                                                                                                                                                                                                                                                                                                                                                                                                                                                                                                                                                                                                                                                                                                                                                                              
E|--1----------------------------------|---1-------------------------------|
B|--------4--------3-----1-----------1-|---------4-----3-----1-------------|
G|-------------------------------------|-----------------------------------|
D|-------------------------------------|-----------------------------------|
A|-------------------------------------|-----------------------------------|
E|-------------------------------------|-----------------------------------|

    
                                                                                                                                                                                                                                                                                                                                                                                                                                                                                                                                                                                                                                                                                                                                                                                                                                                                                                                                                                                                                                                                                                                                                                                              
E|-------------------------------------------|--------------------------------------|
B|-----3-----4-----3-----4-----3-------------|---1-----------1-----1--------3-------|
G|-----------------------------------3-------|---------2----------------------------|
D|-------------------------------------------|--------------------------------------|
A|-------------------------------------------|--------------------------------------|
E|-------------------------------------------|--------------------------------------|

    
                                                                                                                                                                                                                                                                                                                                                                                                                                                                                                                                                                                                                                                                                                                                                                                                                                                                                                                                                                                                                                                                                                                                                                                              
E|--------------------------------0-------|------------------------------0-------|
B|-----1-----------1-----3----------------|---1-----------1-----3----------------|
G|-----------0----------------------------|---------0----------------------------|
D|----------------------------------------|--------------------------------------|
A|----------------------------------------|--------------------------------------|
E|----------------------------------------|--------------------------------------|

    
                                                                                                                                                                                                                                                                                                                                                                                                                                                                                                                                                                                                 
E|-------------------------------------|
B|--------1-----3----------------------|
G|--------------------3-----3----------|
D|-------------------------------------|
A|-------------------------------------|
E|-------------------------------------|

    
                                                                                                                                                                                                                                                                                                                                                                                                                                                                                                                                                                                                                                                                                                                                                                                                                                                                                                                                                                                                                                                                                                                                                                                              
E|--------------------------------0----------|------------------------------0-------|
B|-----1-----------1-----3-------------------|---1-----------1-----3----------------|
G|-----------0-----------------------------0-|---------0----------------------------|
D|-------------------------------------------|--------------------------------------|
A|-------------------------------------------|--------------------------------------|
E|-------------------------------------------|--------------------------------------|

    
                                                                                                                                                                                                                                                                                                                                                                                                                                                                                                                                                                                                                                                                                                                                                                                                                                                                                                                                                                                                                                                                                                                                                                                              
E|-----------3--------5-----3--------0-|------------------------------------3-|
B|-------------------------------------|---3-----1-----3-----------------1----|
G|-------------------------------------|--------------------------------------|
D|-------------------------------------|--------------------------------------|
A|-------------------------------------|--------------------------------------|
E|-------------------------------------|--------------------------------------|

    
                                                                                                                                                                                                                                                                                                                                                                                                                                                                                                                                                                                                                                                                                                                                                                                                                                                                                                                                                                                                                                                                                                                                                                                              
E|--------1-----0----------------|------1-----0-------------|
B|-----------------------3-------|---------------3----------|
G|-------------------------------|--------------------------|
D|-------------------------------|--------------------------|
A|-------------------------------|--------------------------|
E|-------------------------------|--------------------------|

    
                                                                                                                                                                                                                                                                                                                                                                                                                                                                                                                                                                                                                                                                                                                                                                                                                                                                                                                                                                                                                                                                                                                                                                                              
E|-----1--0--1--0----------|-----------------------|
B|-----------------1-----1-|---------------------1-|
G|--------------------1----|-----------------------|
D|-------------------------|-----------------------|
A|-------------------------|-----------------------|
E|-------------------------|-----------------------|

    
                                                                                                                                                                                                                                                                                                                                                                                                                                                                                                                                                                                                                                                                                                                                                                                                                                                                                                                                                                                                                                                                                                                                                                                              
E|--------------------------1-|--------------------------|
B|--------4-----3--1--1-------|---4-----4--3--1----------|
G|----------------------------|--------------------------|
D|----------------------------|--------------------------|
A|----------------------------|--------------------------|
E|----------------------------|--------------------------|

    
                                                                                                                                                                                                                                                                                                                                                                                                                                                                                                                                                                                                                                                                                                                                                                                                                                                                                                                                                                                                                                                                                                                                                                                              
E|-------------------------|---3--1--3--5----------|
B|-----4--3--4--3--------3-|-----------------------|
G|-----------------3-------|-----------------------|
D|-------------------------|-----------------------|
A|-------------------------|-----------------------|
E|-------------------------|-----------------------|

    
                                                                                                                                                                                                                                                                                                                                                                                                                                                                                                                                                                                                 
E|-----6--6--6--5--3--1--3-|
B|-------------------------|
G|-------------------------|
D|-------------------------|
A|-------------------------|
E|-------------------------|

    
                                                                                                                                                                                                                                                                                                                                                                                                                                                                                                                                                                                                 
E|-----6--6--6--5--3--1--3-|
B|-------------------------|
G|-------------------------|
D|-------------------------|
A|-------------------------|
E|-------------------------|

    
                                                                                                                                                                                                                                                                                                                                                                                                                                                                                                                                                                                                                                                                                                                                                                                                                                                                                                                                                                                                                                                                                                                                                                                              
E|-----6--6--6--5----------|---4--4--3-----3--1--3-|
B|-----------------------6-|-----------------------|
G|-------------------------|-----------------------|
D|-------------------------|-----------------------|
A|-------------------------|-----------------------|
E|-------------------------|-----------------------|

    
                                                                                                                                                                                                                                                                                                                                                                                                                                                                                                                                                                                                                                                                                                                                                                                                                                                                                                                                                                                                                                                                                                                                                                                              
E|-------------------------|---0-------------------|
B|-------------------------|------1--------1--3--3-|
G|-----------------------0-|---------2-------------|
D|-------------------------|-----------------------|
A|-------------------------|-----------------------|
E|-------------------------|-----------------------|

    
                                                                                                                                                                                                                                                                                                                                                                                                                                                                                                                                                                                                 
E|-------------------------|
B|-----------------1-------|
G|--------------0----------|
D|-------------------------|
A|-------------------------|
E|-------------------------|

    
                                                                                                                                                                                                                                                                                                                                                                                                                                                                                                                                                                                                                                                                                                                                                                                                                                                                                                                                                                                                                                                                                                                                                                                              
E|-----------------0-------|---------------0-------|
B|--------1--3-------------|------1--3-------------|
G|-----0-----------------0-|---0-------------------|
D|-------------------------|-----------------------|
A|-------------------------|-----------------------|
E|-------------------------|-----------------------|

    
                                                                                                                                                                                                                                                                                                                                                                                                                                                                                                                                                                                                                                                                                                                                                                                                                                                                                                                                                                                                                                                                                                                                                                                              
E|-------------------------|-----------------------|
B|-----1--3----------------|---------------1-------|
G|-----------3--3----------|------------0----------|
D|-------------------------|-----------------------|
A|-------------------------|-----------------------|
E|-------------------------|-----------------------|

    
                                                                                                                                                                                                                                                                                                                                                                                                                                                                                                                                                                                                                                                                                                                                                                                                                                                                                                                                                                                                                                                                                                                                                                                              
E|-----------------0-------|---------------0-------|
B|--------1--3-------------|------1--3-------------|
G|-----0-----------------0-|---0-------------------|
D|-------------------------|-----------------------|
A|-------------------------|-----------------------|
E|-------------------------|-----------------------|

    
                                                                                                                                                                                                                                                                                                                                                                                                                                                                                                                                                                                                                                                                                                                                                                                                                                                                                                                                                                                                                                                                                                                                                                                              
E|--------3-----5--3-----0-|--------------------------|
B|-------------------------|---3--1--3--------------1-|
G|-------------------------|--------------------------|
D|-------------------------|--------------------------|
A|-------------------------|--------------------------|
E|-------------------------|--------------------------|

    
                                                                                                                                                                                                                                                                                                                                                                                                                                                                                                                                                                                                                                                                                                                                                                                                                                                                                                                                                                                                                                                                                                                                                                                              
E|--------1-----0-------------|------1-----0-------------|
B|-----------------3--------1-|---------------3----------|
G|----------------------------|--------------------------|
D|----------------------------|--------------------------|
A|----------------------------|--------------------------|
E|----------------------------|--------------------------|

    
                                                                                                                                                                                                                                                                                                                                                                                                                                                                                                                                                                                                                                                                                                                                                                                                                                                                                                                                                                                                                                                                                                                                                                                              
E|-----1--0--1--0----------|---------5-----3-------|
B|-----------------1-----1-|-----------------------|
G|--------------------1----|---------------------5-|
D|-------------------------|-----------------------|
A|-------------------------|-----------------------|
E|-------------------------|-----------------------|

About I Just Can't Stop Loving You : "I Just Can't Stop Loving You" was written by Jackson and co-produced by Quincy Jones . The presence of Siedah Garrett was a last-minute decision . "I Just Can't Stop Loving You" reached number one on the Billboard Hot 100, R&B Singles and Adult Contemporary charts . Jackson's second number-one song on the Adult Contemporary chart after "The Girl Is Mine" Michael Jackson wanted to share vocals with Barbra Streisand or Whitney Houston . The co-duet duties were given to Siedah Garrett . Garrett had previously dueted on Dennis Edwards' "Don't Look Any Further" It was released in 1987. It was released as part of album Bad. The genre is pop soul. The track was release in 1987. I Just Can't Stop Loving You has a significant contribution from artist(s) Michael Jackson,Siedah Garrett,Barbra Streisand,Whitney Houston. It is related to the album(s) - Bad.

About Michael Jackson - Michael Joseph Jackson was one of the most significant cultural figures of the 20th century . He popularized complicated dance techniques such as the moonwalk, to which he gave the name . Through stage and video performances, he popularized . Jackson made his professional debut in 1964 with his elder brothers Jackie, Tito, Jermaine and Marlon as a member of the Jackson 5 . Jackson rose to solo stardom with his fifth studio album Off the Wall (1979) during the peak of disco era . In 1993, Jackson was accused of sexually abusing the child of a family friend . In 2005, he was acquitted of further child sexual abuse allegations and several other charges . Michael Jackson's music is influenced by genre(s) - pop soul funk rhythm and blues rock disco post-disco dance-pop new jack swing.

About Siedah Garrett - Deborah Garrett has written songs and performed backing vocals for Michael Jackson, The Pointer Sisters, Brand New Heavies, Quincy Jones, Tevin Campbell, Donna Summer, Madonna, Jennifer Hudson . Born Deborah Christine Garrett, she opted to change her name at age 13 . She later changed it to Siedah, which meant "shining and star-like" Garrett said, "It's a pretty name but nobody called me Deborah. It was always abbreviated to Deb, Debbie, or DeeDee" Siedah Garrett appeared as a contestant on Password Plus in 1980 . She soon began stepping out on her own as a solo artist . Her hits include "Don't Look Any Further" with Dennis Edwards . Siedah Garrett's music is influenced by genre(s) - r&b.

About Bad (album) : Bad was written and recorded in nearly a year . It was the final collaboration between Jackson and Quincy Jones . The album features appearances from Siedah Garrett and Stevie Wonder . Bad debuted at number one on the Billboard Top Pop Albums chart . It sold over 2 million copies in its first week in the US . Nine songs were released as official singles, and one as a promotional single . Bad was promoted with the film, Moonwalker (1988), which included the music videos of songs from the album . The Bad tour grossed $125 million (equivalent to $254 million in 2019) making it the highest-grossing solo concert tour . It had a contribution from notable artists like Michael Jackson,Quincy Jones. Its music is influenced by genres - pop rock funk r&b dance soul hard rock.

tabs and chords, guitar tabs, music transcription, music technology, deep learning, music information retrieval, transcribe into tabs & chords, chordify, music renditions, songsterr, reverbnation, tabulature, bollywood chords, ultimate guitar, yousician, guitar lessons, acoustic guitar, electric guitar, guitar tuner, 911 tabs