Bass Tabs for I Fall In Love Se Easily

(/) Slide Up  (\) Slide Down  (h) Hammer On  (p) Pull Off  (b) Bend (r) Release (v) Vibrato (x) Muted

Tabs for Song : 

Song lyrics here
G|--------------------------------0--0-----0-----------1--0-----------------------------------0--0----------------0---
D|--3--3--------1--------1--0--0--------------1-----0--------0--------------------------0--0-----------------0--0-----
A|--------1--1-----1--3-----------------3--------3--------------3--3--1--1--0--0-----------------------0--0-----------
E|---------------------------------------------------------------------------------4--4-------------------------------

G|-------------------------------------------------0--------------3--------0-----------------3-----3--0--------1--0--0
D|-----0-----------------3--3--1-----------------1-----------3--3--------1-----3--1--3-3---------1--------1--0--------
A|--2--------3--3--3--3-----------3-----------4--------3--3-----------1--------------------1--------------------------
E|--------3--------------------------1--1--4--------------------------------------------------------------------------

G|--5--0-----------1--0--0---5--5--3--3--2--2--1--1--------0--0--2-----------0--2--4-------------------------------
D|----------1-----0----------------------------------0--3-----------1--0--4-----------0--------------3--1-----1--3-
A|------------3--------------------------------------------------------------------------3--3--3--3--------3-------
E|-----------------------------------------------------------------------------------------------------------------

G|---0--1--------0-----------------------3--0--------0--1--3--0--7--5--3--1---0-----------0--------1--0--0-----0-----3
D|------------1-----------3--3--------1-----------3--------------------------0---3--------------0-----------------1---
A|---------4--------3--3--------1--1-----------3------------------------------------3--3-----3--------------3---------
E|--------------------------------------------------------------------------------------------------------------------

G|----2-----1--------1--0--0----2-----------0--------0-----------------------------0--1-----0--3--5----------------
D|----------------0-------------------0--4-----0--------------------3--3--1--1--3-----------------------3--3-------
A|-------0-----3-------------------0--------------2-----3--3--3--3-----------------------3-----------3--------1--1-
E|-----------------------------------------------------------------------------------------------------------------

G|-----3--0-----------1--1--0--3--5--5------5--3--------
D|--1-----------3--3---------------------3-----------1--
A|-----------3------------------------------------1-----
E|------------------------------------------------------

Song lyrics here
G|--
D|--
A|--
E|--

Paste any tab in acousterr's tab maker and we'll play it !!!
Now supports capo and sound effects for vibrato/pull-off/hammer/bends/mutes etc !!! Checkout help section
tabs and chords, guitar tabs, music transcription, music technology, deep learning, music information retrieval, transcribe into tabs & chords, chordify, music renditions, songsterr, reverbnation, tabulature, bollywood chords, ultimate guitar, yousician, guitar lessons, acoustic guitar, electric guitar, guitar tuner, 911 tabs