I Don't Wanna Hear It - Minor Threat - Guitar Tabs

Preslar
    
                                                                                                                                                                                                                                                                                                                                                                                                                                                                                                                                                                                                 
E|-------------------------|
B|-------------------------|
G|--------------9--9--9--9-|
D|--9--9--9--9--9--9--9--9-|
A|--9--9--9--9--7--7--7--7-|
E|--7--7--7--7-------------|

    
                                                                                                                                                                                                                                                                                                                                                                                                                                                                                                                                                                                                                                                                                                                                                                                                                                                                                                                                                                                                                                                                                                                                                                                              
E|-------------------------|-----------------------|
B|-------------------------|-----------------------|
G|-------------------------|------------9--9--9--9-|
D|--4--4-----4-----4-----4-|9--9--9--9--9--9--9--9-|
A|--4--4-----4-----4-----4-|9--9--9--9--7--7--7--7-|
E|--2--2--0--2-----2--0--2-|7--7--7--7-------------|

    
                                                                                                                                                                                                                                                                                                                                                                                                                                                                                                                                                                                                                                                                                                                                                                                                                                                                                                                                                                                                                                                                                                                                                                                              
E|-------------------------|-----------------------|
B|-------------------------|-----------------------|
G|-------------------------|------------9--9--9--9-|
D|--4--4-----4-----4-----4-|9--9--9--9--9--9--9--9-|
A|--4--4-----4-----4-----4-|9--9--9--9--7--7--7--7-|
E|--2--2--0--2-----2--0--2-|7--7--7--7-------------|

    
                                                                                                                                                                                                                                                                                                                                                                                                                                                                                                                                                                                                                                                                                                                                                                                                                                                                                                                                                                                                                                                                                                                                                                                              
E|-------------------------|-----------------------|
B|-------------------------|-----------------------|
G|-------------------------|------------9--9--9--9-|
D|--4--4-----4-----4-----4-|9--9--9--9--9--9--9--9-|
A|--4--4-----4-----4-----4-|9--9--9--9--7--7--7--7-|
E|--2--2--0--2-----2--0--2-|7--7--7--7-------------|

    
                                                                                                                                                                                                                                                                                                                                                                                                                                                                                                                                                                                                                                                                                                                                                                                                                                                                                                                                                                                                                                                                                                                                                                                              
E|-------------------------|-----------------------|
B|-------------------------|-----------------------|
G|-------------------------|------------9--9--9--9-|
D|--4--4-----4-----4-----4-|9--9--9--9--9--9--9--9-|
A|--4--4-----4-----4-----4-|9--9--9--9--7--7--7--7-|
E|--2--2--0--2-----2--0--2-|7--7--7--7-------------|

    
                                                                                                                                                                                                                                                                                                                                                                                                                                                                                                                                                                                                                                                                                                                                                                                                                                                                                                                                                                                                                                                                                                                                                                                              
E|-------------------------|-----------------------|
B|-------------------------|-----------------------|
G|-------------------------|------------9--9--9--9-|
D|--4--4-----4-----4-----4-|9--9--9--9--9--9--9--9-|
A|--4--4-----4-----4-----4-|9--9--9--9--7--7--7--7-|
E|--2--2--0--2-----2--0--2-|7--7--7--7-------------|

    
                                                                                                                                                                                                                                                                                                                                                                                                                                                                                                                                                                                                                                                                                                                                                                                                                                                                                                                                                                                                                                                                                                                                                                                              
E|-------------------------|-----------------------|
B|-------------------------|-----------------------|
G|--------------9----------|-----------------------|
D|--4--4--4--4--9-----9----|11-11-11-11-9-----4----|
A|--4--4--4--4--7-----9----|11-11-11-11-9-----4----|
E|--2--2--2--2--------7----|9--9--9--9--7-----2----|

    
                                                                                                                                                                                                                                                                                                                                                                                                                                                                                                                                                                                                                                                                                                                                                                                                                                                                                                                                                                                                                                                                                                                                                                                              
E|-------------------------|-----------------------|
B|-------------------------|-----------------------|
G|--------------9----------|-----------------------|
D|--4--4--4--4--9-----9----|11-11-11-11-9-----4----|
A|--4--4--4--4--7-----9----|11-11-11-11-9-----4----|
E|--2--2--2--2--------7----|9--9--9--9--7-----2----|

    
                                                                                                                                                                                                                                                                                                                                                                                                                                                                                                                                                                                                                                                                                                                                                                                                                                                                                                                                                                                                                                                                                                                                                                                              
E|-------------------------|-----------------------|
B|-------------------------|-----------------------|
G|--------------9----------|-----------------------|
D|--4--4--4--4--9-----9----|11-11-11-11-9-----4----|
A|--4--4--4--4--7-----9----|11-11-11-11-9-----4----|
E|--2--2--2--2--------7----|9--9--9--9--7-----2----|

    
                                                                                                                                                                                                                                                                                                                                                                                                                                                                                                                                                                                                                                                                                                                                                                                                                                                                                                                                                                                                                                                                                                                                                                                              
E|-------------------------|-----------------------|
B|-------------------------|-----------------------|
G|--------------9----------|-----------------------|
D|--4--4--4--4--9-----9----|11-11-11-11-11-11-11-11|
A|--4--4--4--4--7-----9----|11-11-11-11-11-11-11-11|
E|--2--2--2--2--------7----|9--9--9--9--9--9--9--9-|

    
                                                                                                                                                                                                                                                                                                                                                                                                                                                                                                                                                                                                                                                                                                                                                                                                                                                                                                                                                                                                                                                                                                                                                                                              
E|-------------------------|-----------------------|
B|-------------------------|-----------------------|
G|-------------------------|------------9--9--9--9-|
D|--4--4-----4-----4-----4-|9--9--9--9--9--9--9--9-|
A|--4--4-----4-----4-----4-|9--9--9--9--7--7--7--7-|
E|--2--2--0--2-----2--0--2-|7--7--7--7-------------|

    
                                                                                                                                                                                                                                                                                                                                                                                                                                                                                                                                                                                                                                                                                                                                                                                                                                                                                                                                                                                                                                                                                                                                                                                              
E|-------------------------|-----------------------|
B|-------------------------|-----------------------|
G|-------------------------|------------9--9--9--9-|
D|--4--4-----4-----4-----4-|9--9--9--9--9--9--9--9-|
A|--4--4-----4-----4-----4-|9--9--9--9--7--7--7--7-|
E|--2--2--0--2-----2--0--2-|7--7--7--7-------------|

    
                                                                                                                                                                                                                                                                                                                                                                                                                                                                                                                                                                                                                                                                                                                                                                                                                                                                                                                                                                                                                                                                                                                                                                                              
E|-------------------------|-----------------------|
B|-------------------------|-----------------------|
G|-------------------------|------------9--9--9--9-|
D|--4--4-----4-----4-----4-|9--9--9--9--9--9--9--9-|
A|--4--4-----4-----4-----4-|9--9--9--9--7--7--7--7-|
E|--2--2--0--2-----2--0--2-|7--7--7--7-------------|

    
                                                                                                                                                                                                                                                                                                                                                                                                                                                                                                                                                                                                                                                                                                                                                                                                                                                                                                                                                                                                                                                                                                                                                                                              
E|-------------------------|-----------------------|
B|-------------------------|-----------------------|
G|-------------------------|------------9--9--9--9-|
D|--4--4-----4-----4-----4-|9--9--9--9--9--9--9--9-|
A|--4--4-----4-----4-----4-|9--9--9--9--7--7--7--7-|
E|--2--2--0--2-----2--0--2-|7--7--7--7-------------|

    
                                                                                                                                                                                                                                                                                                                                                                                                                                                                                                                                                                                                                                                                                                                                                                                                                                                                                                                                                                                                                                                                                                                                                                                              
E|-------------------------|-----------------------|
B|-------------------------|-----------------------|
G|--------------9----------|-----------------------|
D|--4--4--4--4--9-----9----|11-11-11-11-9-----4----|
A|--4--4--4--4--7-----9----|11-11-11-11-9-----4----|
E|--2--2--2--2--------7----|9--9--9--9--7-----2----|

    
                                                                                                                                                                                                                                                                                                                                                                                                                                                                                                                                                                                                                                                                                                                                                                                                                                                                                                                                                                                                                                                                                                                                                                                              
E|-------------------------|-----------------------|
B|-------------------------|-----------------------|
G|--------------9----------|-----------------------|
D|--4--4--4--4--9-----9----|11-11-11-11-9-----4----|
A|--4--4--4--4--7-----9----|11-11-11-11-9-----4----|
E|--2--2--2--2--------7----|9--9--9--9--7-----2----|

    
                                                                                                                                                                                                                                                                                                                                                                                                                                                                                                                                                                                                                                                                                                                                                                                                                                                                                                                                                                                                                                                                                                                                                                                              
E|-------------------------|-----------------------|
B|-------------------------|-----------------------|
G|--------------9----------|-----------------------|
D|--4--4--4--4--9-----9----|11-11-11-11-9-----4----|
A|--4--4--4--4--7-----9----|11-11-11-11-9-----4----|
E|--2--2--2--2--------7----|9--9--9--9--7-----2----|

    
                                                                                                                                                                                                                                                                                                                                                                                                                                                                                                                                                                                                                                                                                                                                                                                                                                                                                                                                                                                                                                                                                                                                                                                              
E|-------------------------|-----------------------|
B|-------------------------|-----------------------|
G|--------------9----------|-----------------------|
D|--4--4--4--4--9-----9----|11-11-11-11-11-11-11-11|
A|--4--4--4--4--7-----9----|11-11-11-11-11-11-11-11|
E|--2--2--2--2--------7----|9--9--9--9--9--9--9--9-|

    
                                                                                                                                                                                                                                                                                                                                                                                                                                                                                                                                                                                                                                                                                                                                                                                                                                                                                                                                                                                                                                                                                                                                                                                              
E|-------------------------|-----------------------|
B|-------------------------|-----------------------|
G|-------------------------|------------9--9--9--9-|
D|--4--4-----4-----4-----4-|9--9--9--9--9--9--9--9-|
A|--4--4-----4-----4-----4-|9--9--9--9--7--7--7--7-|
E|--2--2--0--2-----2--0--2-|7--7--7--7-------------|

    
                                                                                                                                                                                                                                                                                                                                                                                                                                                                                                                                                                                                                                                                                                                                                                                                                                                                                                                                                                                                                                                                                                                                                                                              
E|-------------------------|-----------------------|
B|-------------------------|-----------------------|
G|-------------------------|------------9--9--9--9-|
D|--4--4-----4-----4-----4-|9--9--9--9--9--9--9--9-|
A|--4--4-----4-----4-----4-|9--9--9--9--7--7--7--7-|
E|--2--2--0--2-----2--0--2-|7--7--7--7-------------|

    
                                                                                                                                                                                                                                                                                                                                                                                                                                                                                                                                                                                                                                                                                                                                                                                                                                                                                                                                                                                                                                                                                                                                                                                              
E|-------------------------|-----------------------|
B|-------------------------|-----------------------|
G|-------------------------|------------9--9--9--9-|
D|--4--4-----4-----4-----4-|9--9--9--9--9--9--9--9-|
A|--4--4-----4-----4-----4-|9--9--9--9--7--7--7--7-|
E|--2--2--0--2-----2--0--2-|7--7--7--7-------------|

    
                                                                                                                                                                                                                                                                                                                                                                                                                                                                                                                                                                                                                                                                                                                                                                                                                                                                                                                                                                                                                                                                                                                                                                                              
E|-------------------------|-----------------------|
B|-------------------------|-----------------------|
G|-------------------------|------------9--9--9--9-|
D|--4--4-----4-----4-----4-|9--9--9--9--9--9--9--9-|
A|--4--4-----4-----4-----4-|9--9--9--9--7--7--7--7-|
E|--2--2--0--2-----2--0--2-|7--7--7--7-------------|

    
                                                                                                                                                                                                                                                                                                                                                                                                                                                                                                                                                                                                                                                                                                                                                                                                                                                                                                                                                                                                                                                                                                                                                                                              
E|-------------------------|-----------------------|
B|-------------------------|-----------------------|
G|-------------------------|------------9--9--9--9-|
D|--4--4-----4-----4-----4-|9--9--9--9--9--9--9--9-|
A|--4--4-----4-----4-----4-|9--9--9--9--7--7--7--7-|
E|--2--2--0--2-----2--0--2-|7--7--7--7-------------|

    
                                                                                                                                                                                                                                                                                                                                                                                                                                                                                                                                                                                                                                                                                                                                                                                                                                                                                                                                                                                                                                                                                                                                                                                              
E|-------------------------|-----------------------|
B|-------------------------|-----------------------|
G|-------------------------|------------9--9--9--9-|
D|--4--4-----4-----4-----4-|9--9--9--9--9--9--9--9-|
A|--4--4-----4-----4-----4-|9--9--9--9--7--7--7--7-|
E|--2--2--0--2-----2--0--2-|7--7--7--7-------------|

    
                                                                                                                                                                                                                                                                                                                                                                                                                                                                                                                                                                                                                                                                                                                                                                                                                                                                                                                                                                                                                                                                                                                                                                                              
E|-------------------------|-----------------------|
B|-------------------------|-----------------------|
G|--------------9----------|-----------------------|
D|--4--4--4--4--9-----9----|11-11-11-11-9-----4----|
A|--4--4--4--4--7-----9----|11-11-11-11-9-----4----|
E|--2--2--2--2--------7----|9--9--9--9--7-----2----|

    
                                                                                                                                                                                                                                                                                                                                                                                                                                                                                                                                                                                                                                                                                                                                                                                                                                                                                                                                                                                                                                                                                                                                                                                              
E|-------------------------|-----------------------|
B|-------------------------|-----------------------|
G|--------------9----------|-----------------------|
D|--4--4--4--4--9-----9----|11-11-11-11-9-----4----|
A|--4--4--4--4--7-----9----|11-11-11-11-9-----4----|
E|--2--2--2--2--------7----|9--9--9--9--7-----2----|

    
                                                                                                                                                                                                                                                                                                                                                                                                                                                                                                                                                                                                                                                                                                                                                                                                                                                                                                                                                                                                                                                                                                                                                                                              
E|-------------------------|-----------------------|
B|-------------------------|-----------------------|
G|--------------9----------|-----------------------|
D|--4--4--4--4--9-----9----|11-11-11-11-9-----4----|
A|--4--4--4--4--7-----9----|11-11-11-11-9-----4----|
E|--2--2--2--2--------7----|9--9--9--9--7-----2----|

    
                                                                                                                                                                                                                                                                                                                                                                                                                                                                                                                                                                                                                                                                                                                                                                                                                                                                                                                                                                                                                                                                                                                                                                                              
E|-------------------------|-----------------------|
B|-------------------------|-----------------------|
G|--------------9----------|-----------------------|
D|--4--4--4--4--9-----9----|11-11-11-11-11-11-11-11|
A|--4--4--4--4--7-----9----|11-11-11-11-11-11-11-11|
E|--2--2--2--2--------7----|9--9--9--9--9--9--9--9-|

    
                                                                                                                                                                                                                                                                                                                                                                                                                                                                                                                                                                                                 
E|-------------------------|
B|-------------------------|
G|-------------------------|
D|--4----------------------|
A|--4----------------------|
E|--2----------------------|

About Minor Threat (album) : Minor Threat was released in March 1984 through Dischord Records . The compilation consisted of the group's first and second extended plays . Minor Threat (originally released June 1981) and In My Eyes (originals released December 1981) Minor Threat and In My Eyes EPs are available on CD on the Minor Threat's 1989 compilation album Complete Discography and also on Dischord 1981: "Straight Edge" was written as an account of MacKaye's personal views and lifestyle . The song was seen to be a call for abstinence from drugs and alcohol, a then-unusual concept for punk rock . It had a contribution from notable artists like Minor Threat. It had an affiliation to bands - Minor Threat. Its music is influenced by genres - hardcore punk.

tabs and chords, guitar tabs, music transcription, music technology, deep learning, music information retrieval, transcribe into tabs & chords, chordify, music renditions, songsterr, reverbnation, tabulature, bollywood chords, ultimate guitar, yousician, guitar lessons, acoustic guitar, electric guitar, guitar tuner, 911 tabs