Guitar Tabs for I Don't Care

Intro
E|--------------------------------------------------------------------
B|--------------------------------------------------------------------
G|--------------------------------------------------------------------
D|--4-----4-----4--------4-----4--------4-----4--------6------6/8-----
A|--------------------------------------------------------------------
E|--------------------------------------------------------------------

I'm at a party I don't wanna be at
And I don't ever wear a suit and tie
E|-----------------------------------------------------------------------------
B|--7--7--9--9--7--7--9--9--7--7--7-----7--7--9--9--7--7--9--9--7---9/11-11----
G|-----------------------------------------------------------------------------
D|-----------------------------------------------------------------------------
A|-----------------------------------------------------------------------------
E|-----------------------------------------------------------------------------

Wonderin' if I could sneak out the back
Nobody's even lookin' me in my eyes
E|-----------------------------------------------------------------------------
B|--7--7--9--9--7--7--9--9--7--7--7-----7--7--9--9--7--7--9--9--7---9/11-11----
G|-----------------------------------------------------------------------------
D|-----------------------------------------------------------------------------
A|-----------------------------------------------------------------------------
E|-----------------------------------------------------------------------------

Then you take my hand
Finish my drink, say, "Shall we dance?" Hell, yeah
E|--------------------------------------------------------------------------------
B|--9--9--9-----9------9/11----9--9--9--9-----9--11-----9\7-----7--7---9/11-11----
G|--------------------------------------------------------------------------------
D|--------------------------------------------------------------------------------
A|--------------------------------------------------------------------------------
E|--------------------------------------------------------------------------------

You know I love you, did I ever tell you?
You make it better like that
E|-----------------------------------------------------------
B|--7--7--9--9--7--7--9--9--7--7--7-----7--7--9--9--7--7--7--
G|-----------------------------------------------------------
D|-----------------------------------------------------------
A|-----------------------------------------------------------
E|-----------------------------------------------------------

Don't think I fit in at this party
E|--14-14----13-13p11-11-11h13p11-9--11/13-11----
B|-----------------------------------------------
G|-----------------------------------------------
D|-----------------------------------------------
A|-----------------------------------------------
E|-----------------------------------------------

Everyone's got so much to say, yeah
E|--14-14----13-13p11-11-11h13p11-9---9/11-----9h11p9--9--
B|--------------------------------------------------------
G|--------------------------------------------------------
D|--------------------------------------------------------
A|--------------------------------------------------------
E|--------------------------------------------------------

I always feel like I'm nobody, mm
E|---9/11-11-11-9--9--9-----------------------------------------
B|-----------------------12-12-11-9--11/12----11-----9h11p9--9--
G|--------------------------------------------------------------
D|--------------------------------------------------------------
A|--------------------------------------------------------------
E|--------------------------------------------------------------

Who wants to fit in anyway?
E|--------------------------------------
B|---9/11-11-11--9h11p9--9--9-----------
G|-----------------------------11-11----
D|--------------------------------------
A|--------------------------------------
E|--------------------------------------

Cause I don't care when I'm with my baby, yeah
All the bad things disappear
E|-----------9--9--9--9--9-----------------------------9--9--9-----------------------------
B|--------------------------11-11-11-9---9h11p9-----------------11-11-11-9---9h11p9--------
G|-----11-11-------------------------------------11----------------------------------11----
D|-----------------------------------------------------------------------------------------
A|-----------------------------------------------------------------------------------------
E|-----------------------------------------------------------------------------------------

And you're making me feel like maybe I am somebody
E|--------------------------------------------------------
B|--------------11-11-------------11-11--------9/11-9-----
G|--11-11-11-11-------11-11-11-11-------11----------------
D|--------------------------------------------------------
A|--------------------------------------------------------
E|--------------------------------------------------------

I can deal with the bad nights
When I'm with my baby, yeah
E|-----------------------------------9--9--9-----------------------------
B|--12-12-12/14-12-12-12/14----9--------------11-11-11-9---9h11p9--------
G|-----------------------------------------------------------------11----
D|-----------------------------------------------------------------------
A|-----------------------------------------------------------------------
E|-----------------------------------------------------------------------

Ooh, ooh, ooh, ooh, ooh, ooh
E|-----------------------------------------
B|-----------------------------------------
G|-----6--6--6--4--4--4--1---1h-3p1--------
D|-----------------------------------4-----
A|-----------------------------------------
E|-----------------------------------------
tabs and chords, guitar tabs, music transcription, music technology, deep learning, music information retrieval, transcribe into tabs & chords, chordify, music renditions, songsterr, reverbnation, tabulature, bollywood chords, ultimate guitar, yousician, guitar lessons, acoustic guitar, electric guitar, guitar tuner, 911 tabs