Guitar Tabs for I Do Need Saving

(/) Slide Up  (\) Slide Down  (h) Hammer On  (p) Pull Off  (b) Bend (r) Release (v) Vibrato

Tabs for Song : 

Song lyrics here
E|--3-------------------------------------------------------------------------------------
B|--3-------------------------------------------------------------------------------------
G|----------------------------------------------------------------------------------------
D|--------2-----0--------0--2-----0-----------------0-----------0-------------------------
A|--2-----------------2-----------------2--0--------------0------------0h2----0---0h22---0
E|--3-----------------------------------------3-------------------------------------------

E|----------------------------------
B|----------------------------------
G|----------------------------------
D|----------------------------------
A|-----2---0----0h22---0-------2--0-
E|--3-----------------------3-------

E|--------------------------------------------
B|--------------------------------------------
G|--------------------------------------------
D|--------------------------------------------
A|------------------------0h2---------------------
E|-----0-----2-----3-----------3------0--2--3--

Song lyrics here
E|--
B|--
G|--
D|--
A|--
E|--

Now supports capo and sound effects for vibrato/pull-off/hammer/bends etc !!! Checkout help section
tabs and chords, guitar tabs, music transcription, music technology, deep learning, music information retrieval, transcribe into tabs & chords, chordify, music renditions, songsterr, reverbnation, tabulature, bollywood chords, ultimate guitar, yousician, guitar lessons, acoustic guitar, electric guitar, guitar tuner, 911 tabs