I Could Have Lied (live In Budokan) - Red Hot Chili Peppers - Guitar Tabs

Guitar
    
                                                                                                                                                                                                                                                                                                                                                                                                                                                                                                                                                                                                                                                                                                                                                                                                                                                                                                                                                                                                                                                                                                                                                                                              
E|-------------------------------------------|--------------------------|
B|-------------------------------------------|--------------------------|
G|-------------------------------------------|--------------------------|
D|--------0-----4-----0-----4--------0------4/7-----5-----4-----0-------|
A|--0--2-----2-----2-----2--------2-----2----|--------------------------|
E|-------------------------------------------|--------------------------|

    
                                                                                                                                                                                                                                                                                                                                                                                                                                                                                                                                                                                                                                                                                                                                                                                                                                                                                                                                                                                                                                                                                                                                                                                              
E|-------------------------------------------|--------------------------|
B|-------------------------------------------|--------------------------|
G|-------------------------------------------|--------------------------|
D|--------0-----4-----0-----4--------0------4/7-----5-----4-----0-------|
A|---0p2-----2-----2-----2--------2-----2----|--------------------------|
E|-------------------------------------------|---------------------3----|

    
                                                                                                                                                                                                                                                                                                                                                                                                                                                                                                                                                                                                                                                                                                                                                                                                                                                                                                                                                                                                                                                                                                                                                                                              
E|-------------------------------------------|--------------------------|
B|-------------------------------------------|--------------------------|
G|-------------------------------------------|--------------------------|
D|--------0-----4-----0-----4--------0------4/7-----5-----4-----0-------|
A|---0p2-----2-----2-----2--------2-----2----|--------------------------|
E|-------------------------------------------|--------------------------|

    
                                                                                                                                                                                                                                                                                                                                                                                                                                                                                                                                                                                                                                                                                                                                                                                                                                                                                                                                                                                                                                                                                                                                                                                              
E|-------------------------------------------|--------------------------|
B|-------------------------------------------|--------------------------|
G|-------------------------------------------|--------------------------|
D|--------0-----4-----0-----4--------0------4/7-----5-----4-----0-------|
A|---0p2-----2-----2-----2--------2-----2----|--------------------------|
E|-------------------------------------------|--------------------------|

    
                                                                                                                                                                                                                                                                                                                                                                                                                                                                                                                                                                                                                                                                                                                                                                                                                                                                                                                                                                                                                                                                                                                                                                                              
E|-------------------------------------------|--------------------------|
B|-------------------------------------------|--------------------------|
G|-------------------------------------------|--------------------------|
D|--------0-----4-----0-----4--------0------4/7-----5-----4-----0-------|
A|---0p2-----2-----2-----2--------2-----2----|--------------------------|
E|-------------------------------------------|---------------------3----|

    
                                                                                                                                                                                                                                                                                                                                                                                                                                                                                                                                                                                                                                                                                                                                                                                                                                                                                                                                                                                                                                                                                                                                                                                              
E|-------------------------------------------|--------------------------|
B|-------------------------------------------|--------------------------|
G|-------------------------------------------|--------------------------|
D|--------0-----4-----0-----4--------0------4/7-----5-----4-----0-------|
A|---0p2-----2-----2-----2--------2-----2----|--------------------------|
E|-------------------------------------------|---------------------3----|

    
                                                                                                                                                                                                                                                                                                                                                                                                                                                                                                                                                                                                                                                                                                                                                                                                                                                                                                                                                                                                                                                                                                                                                                                              
E|----------------------------------|0-----------0-----0-------|
B|--4-----4--x--7-----7--7--7--7--7-|0-----------0-----0-------|
G|--4-----4--x--7-----7--7--7--7--7-|6-----6-----4-----4-------|
D|--4-----4--x--7-----7--7--7--7--7-|7-----7-----5-----5-------|
A|--2-----2--x--5-----5--5--5--5--5-|7-----7-----5-----5-------|
E|----------------------------------|5-----5-----3-----3-------|

    
                                                                                                                                                                                                                                                                                                                                                                                                                                                                                                                                                                                                                                                                                                                                                                                                                                                                                                                                                                                                                                                                                                                                                                                              
E|-------------------------------|--------------------------|
B|-------------------------------|--------------------------|
G|-------------------------------|--------------------------|
D|--------(0)------------------4-|7-----5-----4-----0-------|
A|--0)p(2)---(2)-----------------|--------------------------|
E|-------------------------------|--------------------------|

    
                                                                                                                                                                                                                                                                                                                                                                                                                                                                                                                                                                                                                                                                                                                                                                                                                                                                                                                                                                                                                                                                                                                                                                                              
E|-------------------------------------------|--------------------------|
B|-------------------------------------------|--------------------------|
G|-------------------------------------------|--------------------------|
D|--------0-----4-----0-----4--------0-----4-|7-----5-----4-----0-------|
A|---0p2-----2-----2-----2--------2-----2----|--------------------------|
E|-------------------------------------------|---------------------3----|

    
                                                                                                                                                                                                                                                                                                                                                                                                                                                                                                                                                                                                                                                                                                                                                                                                                                                                                                                                                                                                                                                                                                                                                                                              
E|-------------------------------------------|--------------------------|
B|-------------------------------------------|--------------------------|
G|-------------------------------------------|--------------------------|
D|--------0-----4-----0-----4--------0-----4-|7-----5-----4-----0-------|
A|---0p2-----2-----2-----2--------2-----2----|--------------------------|
E|-------------------------------------------|---------------------3----|

    
                                                                                                                                                                                                                                                                                                                                                                                                                                                                                                                                                                                                                                                                                                                                                                                                                                                                                                                                                                                                                                                                                                                                                                                              
E|-------------------------------------------|--------------------------|
B|-------------------------------------------|--------------------------|
G|-------------------------------------------|--------------------------|
D|--------0-----4-----0-----4--------0-----4-|7-----5-----4-----0-------|
A|---0p2-----2-----2-----2--------2-----2----|--------------------------|
E|-------------------------------------------|---------------------3----|

    
                                                                                                                                                                                                                                                                                                                                                                                                                                                                                                                                                                                                                                                                                                                                                                                                                                                                                                                                                                                                                                                                                                                                                                                              
E|----------------------------------------|--------------------------|
B|---------------------------------2p3----|--------------------------|
G|----------------------------------------|--------------------------|
D|--------0-----4-----0-----4-----------4-|7-----5-----4-----0-------|
A|---0p2-----2-----2-----2----------------|--------------------------|
E|----------------------------------------|---------------------3----|

    
                                                                                                                                                                                                                                                                                                                                                                                                                                                                                                                                                                                                                                                                                                                                                                                                                                                                                                                                                                                                                                                                                                                                                                                              
E|-------------------------------------------|--------------------------|
B|-------------------------------------------|--------------------------|
G|-------------------------------------------|--------------------------|
D|--------0-----4-----0-----4--------0-----4-|7-----5-----4-----0-------|
A|---0p2-----2-----2-----2--------2-----2----|--------------------------|
E|-------------------------------------------|---------------------3----|

    
                                                                                                                                                                                                                                                                                                                                                                                                                                                                                                                                                                                                                                                                                                                                                                                                                                                                                                                                                                                                                                                                                                                                                                                              
E|----------------------------------|0-----------0-----0--0-----0--0--0-|
B|--4-----4--x--7-----7--7--7--7--7-|0-----------0-----0--0-----0--0--0-|
G|--4-----4--x--7-----7--7--7--7--7-|6-----6-----4-----4--4-----4--4--4-|
D|--4-----4--x--7-----7--7--7--7--7-|7-----7-----5-----5--5-----5--5--5-|
A|--2-----2--x--5-----5--5--5--5--5-|7-----7-----5-----5--5-----5--5--5-|
E|----------------------------------|5-----5-----3-----3--3-----3--3--3-|

    
                                                                                                                                                                                                                                                                                                                                                                                                                                                                                                                                                                                                                                                                                                                                                                                                                                                                                                                                                                                                                                                                                                                                                                                              
E|----------------------------------------|--------------------------------------|
B|----------------------------------------|--------------------------------------|
G|--7--7--7--7--7--7-----7--7-----7--7--7-|6--6--6--6--6--6--4--4--4--4--4--4--4-|
D|--9--9--9--9--9--9-----9--9-----9--9--9-|7--7--7--7--7--7--5--5--5--5--5--5--5-|
A|--9--9--9--9--9--9-----9--9-----9--9--9-|7--7--7--7--7--7--5--5--5--5--5--5--5-|
E|--7--7--7--7--7--7-----7--7-----7--7--7-|5--5--5--5--5--5--3--3--3--3--3--3--3-|

    
                                                                                                                                                                                                                                                                                                                                                                                                                                                                                                                                                                                                                                                                                                                                                                                                                                                                                                                                                                                                                                                                                                                                                                                              
E|--------------------10----10-10-10-10-10|5--5--5--5--3-----3--3-----3-|
B|--8--8--8--8--8-----12----12-12-12-12-12|7--7--7--7--5-----5--5-----5-|
G|--9--9--9--9--9--x--12----12-12-12-12-12|7--7--7--7--5-----5--5-----5-|
D|--9--9--9--9--9--x--12----12-12-12-12-12|7--7--7--7--5-----5--5-----5-|
A|--7--7--7--7--7--x--10----10-10-10-10-10|5--5--5--5--3-----3--3-----3-|
E|-----------------x----------------------|-----------------------------|

    
                                                                                                                                                                                                                                                                                                                                                                                                                                                                                                                                                                                                                                                                                                                                                                                                                                                                                                                                                                                                                                                                                                                                                                                              
E|--------------------10----10-10-10-10-10|5--5--5--5--3-----3-----3-|
B|--8--8--8--8--8-----12----12-12-12-12-12|7--7--7--7--5-----5-----5-|
G|--9--9--9--9--9--x--12----12-12-12-12-12|7--7--7--7--5-----5-----5-|
D|--9--9--9--9--9--x--12----12-12-12-12-12|7--7--7--7--5-----5-----5-|
A|--7--7--7--7--7--x--10----10-10-10-10-10|5--5--5--5--3-----3-----3-|
E|-----------------x----------------------|--------------------------|

    
                                                                                                                                                                                                                                                                                                                                                                                                                                                                                                                                                                                                                                                                                                                                                                                                                                                                                                                                                                                                                                                                                                                                                                                              
E|-------------------------------------|--------------------------------|
B|-------------------------------------|--------------------------------|
G|-------------------------------------|6--6--6--7--6--4-----4--4-------|
D|-------------------------------------|---------------------------4--4-|
A|-----------5-----5-----5---5/7--7--7-|--------------------------------|
E|--7-----------7----------------------|--------------------------------|

    
                                                                                                                                                                                                                                                                                                                                                                                                                                                                                                                                                                                                                                                                                                                                                                                                                                                                                                                                                                                                                                                                                                                                                                                              
E|----------------------------------|--------------------------|
B|----------------------------------|--------------------------|
G|-----------------------------9--9-|---------14----12---------|
D|---4/12-12-12-14-12-11-11---------|12-11-12------------------|
A|----------------------------------|--------------------------|
E|----------------------------------|--------------------------|

    
                                                                                                                                                                                                                                                                                                                                                                                                                                                                                                                                                                                                                                                                                                                                                                                                                                                                                                                                                                                                                                                                                                                                                                                              
E|----------------------------|-----------------------|
B|----------------------------|---------------12------|
G|--11----11----------------11|14-------11------------|
D|-----------12----9-----11---|-----------------------|
A|----------------------------|-----------------------|
E|----------------------------|-----------------------|

    
                                                                                                                                                                                                                                                                                                                                                                                                                                                                                                                                                                                                                                                                                                                                                                                                                                                                                                                                                                                                                                                                                                                                                                                              
E|-----------14------------|17-------14------------|
B|--15-------------15-14-15|---------------15-14-15|
G|-------------------------|-----------------------|
D|-------------------------|-----------------------|
A|-------------------------|-----------------------|
E|-------------------------|-----------------------|

    
                                                                                                                                                                                                                                                                                                                                                                                                                                                                                                                                                                                                                                                                                                                                                                                                                                                                                                                                                                                                                                                                                                                                                                                              
E|-------------------------|14-------------17------|
B|--12---------------------|---------14------------|
G|-------------------------|-----------------------|
D|-------------------------|-----------------------|
A|-------------------------|-----------------------|
E|-------------------------|-----------------------|

    
                                                                                                                                                                                                                                                                                                                                                                                                                                                                                                                                                                                                                                                                                                                                                                                                                                                                                                                                                                                                                                                                                                                                                                                              
E|-------------------------|-----------------------|
B|--12---------------------|-----------------------|
G|-----------11------------|11----11----11/--------|
D|-------------------------|-----------------------|
A|-------------------------|-----------------------|
E|-------------------------|-----------------------|

    
                                                                                                                                                                                                                                                                                                                                                                                                                                                                                                                                                                                                                                                                                                                                                                                                                                                                                                                                                                                                                                                                                                                                                                                              
E|-------------------------------------------|--------------------------|
B|-------------------------------------------|--------------------------|
G|-------------------------------------------|--------------------------|
D|--------0-----4-----0-----4--------0-----4-|7-----5-----4-----0-------|
A|---0p2-----2-----2-----2--------2-----2----|--------------------------|
E|-------------------------------------------|---------------------3----|

    
                                                                                                                                                                                                                                                                                                                                                                                                                                                                                                                                                                                                                                                                                                                                                                                                                                                                                                                                                                                                                                                                                                                                                                                              
E|-------------------------------------------|--------------------------|
B|-------------------------------------------|--------------------------|
G|-------------------------------------------|--------------------------|
D|--------0-----4-----0-----4--------0-----4-|7-----5-----4-----0-------|
A|---0p2-----2-----2-----2--------2-----2----|--------------------------|
E|-------------------------------------------|--------------------------|

    
                                                                                                                                                                                                                                                                                                                                                                                                                                                                                                                                                                                                                                                                                                                                                                                                                                                                                                                                                                                                                                                                                                                                                                                              
E|-------------------------------------------|--------------------------|
B|-------------------------------------------|--------------------------|
G|-------------------------------------------|--------------------------|
D|--------0-----4-----0-----4--------0-----4-|7-----5-----4-----0-------|
A|---0p2-----2-----2-----2--------2-----2----|--------------------------|
E|-------------------------------------------|---------------------3----|

    
                                                                                                                                                                                                                                                                                                                                                                                                                                                                                                                                                                                                                                                                                                                                                                                                                                                                                                                                                                                                                                                                                                                                                                                              
E|-------------------------------------------|--------------------------|
B|-------------------------------------------|--------------------------|
G|-------------------------------------------|--------------------------|
D|--------0-----4-----0-----4--------0-----4-|7-----5-----4-----0-------|
A|---0p2-----2-----2-----2--------2-----2----|--------------------------|
E|-------------------------------------------|--------------------------|

    
                                                                                                                                                                                                                                                                                                                                                                                                                                                                                                                                                                                                                                                                                                                                                                                                                                                                                                                                                                                                                                                                                                                                                                                              
E|--------------------10----10-10-10-10-10|5--5--5--5--3--3--3-----3--3--3--3--3-|
B|--8--8--8--8--8-----12----12-12-12-12-12|7--7--7--7--5--5--5-----5--5--5--5--5-|
G|--9--9--9--9--9--x--12----12-12-12-12-12|7--7--7--7--5--5--5-----5--5--5--5--5-|
D|--9--9--9--9--9--x--12----12-12-12-12-12|7--7--7--7--5--5--5-----5--5--5--5--5-|
A|--7--7--7--7--7--x--10----10-10-10-10-10|5--5--5--5--3--3--3-----3--3--3--3--3-|
E|-----------------x----------------------|--------------------------------------|

    
                                                                                                                                                                                                                                                                                                                                                                                                                                                                                                                                                                                                                                                                                                                                                                                                                                                                                                                                                                                                                                                                                                                                                                                              
E|--------------------10----10-10-10-10-10|5--5--5--5--3-----12p10-15---|
B|--8--8--8--8--8-----12----12-12-12-12-12|7--7--7--7--5----------------|
G|--9--9--9--9--9--x--12----12-12-12-12-12|7--7--7--7--5----------------|
D|--9--9--9--9--9--x--12----12-12-12-12-12|7--7--7--7--5----------------|
A|--7--7--7--7--7--x--10----10-10-10-10-10|5--5--5--5--3----------------|
E|-----------------x----------------------|-----------------------------|

    
                                                                                                                                                                                                                                                                                                                                                                                                                                                                                                                                                                                                                                                                                                                                                                                                                                                                                                                                                                                                                                                                                                                                                                                              
E|--15----15----15-14-15----15-15|14-12-14-17-------15-17-14-15-15-14-12|
B|-------------------------------|--------------------------------------|
G|-------------------------------|--------------------------------------|
D|-------------------------------|--------------------------------------|
A|-------------------------------|--------------------------------------|
E|-------------------------------|--------------------------------------|

About Breaking the Girl : "Breaking the Girl" is a song by the Red Hot Chili Peppers from their 1991 album Blood Sugar Sex Magik . It is a melodic ballad that refers to a turbulent relationship between frontman Anthony Kiedis and his former girlfriend . "Breaking the Girl"'s bridge is marked by a percussion break that builds through the use of increasingly complex rhythms . Frusciante's main riff was inspired by Led Zeppelin's ballads such as "The Battle of Evermore" and "Friends" The music video was released in 1992 and was directed by St├ęphane Sednaoui . It makes heavy, experimental use of vibrant colors with the background and costumes changing constantly . It was released in 1992. It was released as part of album Blood Sugar Sex Magik. The genre is acoustic rock psychedelic rock. The track was release in 1992. Breaking the Girl has a significant contribution from artist(s) Anthony Kiedis,Carmen Hawk. It is related to the album(s) - Blood Sugar Sex Magik. The track has an affiliation to the band(s) - the Red Hot Chili Peppers.

About Red Hot Chili Peppers : Red Hot Chili Peppers are one of the best-selling bands of all time . Their music incorporates elements of alternative rock, funk, punk rock and psychedelic rock . The band consists of vocalist Anthony Kiedis, guitarist John Frusciante, bassist Flea and drummer Chad Smith . Red Hot Chili Peppers formed in Los Angeles by Kiedis, Flea, guitarist Hillel Slovak, and drummer Jack Irons . Because of commitments to other bands, Slovak and Irons did not play on the band Red Hot Chili Peppers recorded Mother's Milk (1989) and their first major commercial success, Blood Sugar Sex Magik (1991) Frusciante was uncomfortable with their newfound popularity . His replacement, Dave Navarro, played on the sixth album, One Hot Minute (1995) Red Hot Chili Peppers The group has many notable artists like Anthony Kiedis,John Frusciante,Chad Smith. Their music is influenced by genres - funk rock alternative rock funk metal rap rock.

About Blood Sugar Sex Magik : Red Hot Chili Peppers' fifth studio album, Blood Sugar Sex Magik, released on September 24, 1991 . Produced by Rick Rubin, its musical style differed notably from the band's previous album Mother's Milk (1989) Blood Sugar Sex Magik peaked at number three on the US Billboard 200 . The album propelled the Red Hot Chili Peppers into worldwide popularity and critical acclaim . The band's previous album, Mother's Milk, became the band's second album to enter in the Billboard 200 . Producer Michael Beinhorn convinced Frusciante to play with an overall heavier tone, and instructed Anthony Kiedis to write lyrics . It had a contribution from notable artists like Blood Sugar Sex Magik,Rick Rubin. It had an affiliation to bands - Red Hot Chili Peppers. Its music is influenced by genres - funk rock alternative rock funk metal rap rock.

tabs and chords, guitar tabs, music transcription, music technology, deep learning, music information retrieval, transcribe into tabs & chords, chordify, music renditions, songsterr, reverbnation, tabulature, bollywood chords, ultimate guitar, yousician, guitar lessons, acoustic guitar, electric guitar, guitar tuner, 911 tabs