Bass Tabs for I Can Only Imagine - Bass

(/) Slide Up  (\) Slide Down  (h) Hammer On  (p) Pull Off  (b) Bend (r) Release (v) Vibrato (x) Muted

Tabs for Song : 
BPM : 100

    C
G|-----------5-----------------------------5-----------------
D|--------------5-----2-----------------------5-----2--------
A|--3-----------------------------3--------------------------
E|-----------------------------------------------------------

    F
G|-----------------------------------------------------------
D|-----------3-----------------------------3-----------------
A|--------------3-----0-----------------------3-----0--------
E|--1-----------------------------1--------------------------

tabs and chords, guitar tabs, music transcription, music technology, deep learning, music information retrieval, transcribe into tabs & chords, chordify, music renditions, songsterr, reverbnation, tabulature, bollywood chords, ultimate guitar, yousician, guitar lessons, acoustic guitar, electric guitar, guitar tuner, 911 tabs