Guitar Tabs for I Bet You Don't Curse God

(/) Slide Up  (\) Slide Down  (h) Hammer On  (p) Pull Off  (b) Bend (r) Release (v) Vibrato (x) Muted

Tabs for Song : 
BPM : 200

Song lyrics here 
E|-----------------------------------------------------------------------------------------------------------2x-
B|--------------------------------------------------------------------------------------------------------------
G|--------------------------------------------------------------------------------------------------------------
D|---------6h8---8\10--8\10/8--6--6---------7/10-10-10-10--7/-8\7--6--6---------6/10-10-10-10-11-10-8--6--8-----
A|---6h8------------------------------8p6---------------------------------8p6-----------------------------------
E|--------------------------------------------------------------------------------------------------------------

E|-----------------------------------------------------------------------------------------------------------------------------------------------------------------------------------
B|-----------------------------------------------------------------------------------------------------------------------------------------------------------------------------------
G|---7\10-10-10-12-13-------------12-13-------15\17-15-15-13-13v---13-12-13-12-12-13b13-13b13-------15\17-17-17-17-17-15-13-15-13\15-13b13-13b13-------15\17-17-17-17-17-15-13-15-13b
D|--------------------13h15-15-15-------13h15-------------------------------------------------13h15----------------------------------------------13h15-------------------------------
A|-----------------------------------------------------------------------------------------------------------------------------------------------------------------------------------
E|-----------------------------------------------------------------------------------------------------------------------------------------------------------------------------------

E|--------------------------------------------------------------------------------------------------
B|--------------------------------------------------------------------------------------------------
G|--------13-12-10-------13-12----------------------------------------------------------------------
D|--13h15----------13h15-------10-10-11-8--------6---8/10--8/10-10\8--6--6---------6/10-10-10-10\8--
A|-----------------------------------------6--8------------------------------6p8--------------------
E|--------------------------------------------------------------------------------------------------

E|-----------------------------------------------------------------------------------------------------------------------------------------------------------
B|-----------------------------------------------------------------------------------------------------------------------------------------------------------
G|-----------------------------------------------------------------------------------------------------------------------------------------------------------
D|--6--6---------6/10-10-10-10--8p10--8p10-8---6\8---------6h8---8\10--8\10-10/8--6--6---------8\10-10-10-10\13/-8/6--6---------8\10-10-10-10\11-10-8---6\8--
A|---------6p8---------------------------------------6h8---------------------------------6p8------------------------------6p8--------------------------------
E|-----------------------------------------------------------------------------------------------------------------------------------------------------------

E|-----------------------------------------------------------------------------------------------------------------------------------------------------------------------------------
B|-----------------------------------------------------------------------------------------------------------------------------------------------------------------------------------
G|---7\10-10-10-12-13-------------12-13-------15\17-15-15-13-13v---13-12-13-12-12-13b13-13b13-------15\17-17-17-17-17-15-13-15-13\15-13b13-13b13-------15\17-17-17-17-17-15-13-15-13b
D|--------------------13h15-15-15-------13h15-------------------------------------------------13h15----------------------------------------------13h15-------------------------------
A|-----------------------------------------------------------------------------------------------------------------------------------------------------------------------------------
E|-----------------------------------------------------------------------------------------------------------------------------------------------------------------------------------

E|-----------------------------------------------------------------------------------------------------------------------------------------------------------------------------------------------
B|--------------------------------------------------------------------------------------------------------------------------------------17b17-17b17-------20----20-20-21b19-21-20-16-18b16-16h18-
G|--------13-12-10-13v------13-12-------------------13-15-17-15\17-15-13-13-15\17-17-17-17-17/15-13-13-------15\17-17-17-17-17-17-15-15-------------19-21----18----------------------------------
D|--13-15-------------13-15-------10-10-11-8--13-15----------------------------------------------------13p15-------------------------------------------------------------------------------------
A|-----------------------------------------------------------------------------------------------------------------------------------------------------------------------------------------------
E|-----------------------------------------------------------------------------------------------------------------------------------------------------------------------------------------------

tabs and chords, guitar tabs, music transcription, music technology, deep learning, music information retrieval, transcribe into tabs & chords, chordify, music renditions, songsterr, reverbnation, tabulature, bollywood chords, ultimate guitar, yousician, guitar lessons, acoustic guitar, electric guitar, guitar tuner, 911 tabs