Guitar Tabs for Humme Tumse Pyar Kitna Easiest Guitar Tabs Anyone Can Play Falak Shabir

(/) Slide Up  (\) Slide Down  (h) Hammer On  (p) Pull Off  (b) Bend (r) Release (v) Vibrato (x) Muted

Humme Tumse Pyar kitna (Easiest Guitar Tabs

Tumhe koi or dekhe
E|--11-7--9--11-9--7--9--11-11-11-
B|--------------------------------
G|--------------------------------
D|--------------------------------
A|--------------------------------
E|--------------------------------

Tu jalta hai dil
E|--4--7--4--3--4--
B|-----------------
G|-----------------
D|-----------------
A|-----------------
E|-----------------

Bari mushkilo se phir
E|--11-7--9--11-9--7--9--11-11-11-
B|--------------------------------
G|--------------------------------
D|--------------------------------
A|--------------------------------
E|--------------------------------


Sambhalta hai dil
E|--4--7--4--3--4--
B|-----------------
G|-----------------
D|-----------------
A|-----------------
E|-----------------



ooooo Tumhe koi or dekhe
E|---9\11----11-7--9--11-9--7--9--11-11-11-
B|-----------------------------------------
G|-----------------------------------------
D|-----------------------------------------
A|-----------------------------------------
E|-----------------------------------------


tu Jalta hai dil
E|--4--7--4--3--4--
B|-----------------
G|-----------------
D|-----------------
A|-----------------
E|-----------------


Bari mushkilon se phir
Sambhalta hai dil

just repeat the starting part


Kiya kiya jatan karte hain
E|--4--6--7--9--9--9--6--4-----
B|--------------------------7--
G|-----------------------------
D|-----------------------------
A|-----------------------------
E|-----------------------------


Tumhe kiya pata
E|-----6-----6--4-----------------
B|--7-----7-----------7--5--7--4--
G|--------------------------------
D|--------------------------------
A|--------------------------------
E|--------------------------------


ye dil bekarar Kitna
E|--------------4--4--4--4--
B|--4--5--7--7--------------
G|--------------------------
D|--------------------------
A|--------------------------
E|--------------------------

Ye Hum Nahi Jante
E|--6--9--6--4-----------
B|--------------7--6--7--
G|-----------------------
D|-----------------------
A|-----------------------
E|-----------------------


Magar Jee Nahi Sakte
E|--6--4--------------------------
B|--------7--5--7--5--7--5--4-----
G|-----------------------------6--
D|--------------------------------
A|--------------------------------
E|--------------------------------


Tumhare Bina a a
E|--------------------3--4--
B|-----7-----5--4-----------
G|--6-----6-----------------
D|--------------------------
A|--------------------------
E|--------------------------

Humme Tumse Pyar kitna
Ye hum nahi jante
magar jee Nahi sakte
Tumhare bina

same as
ye dil bekarar kitna 
ye hum nahi jante
magar jee nahi sakte
tumhare bina


for suna gham judai ka
uthate hain log
janne Zindagi kese
bitaten hain log

din b yaha ko lage
baras k saman haa

humme intezar kitna
ye hum nahi jante
magar jee nahi sakte 
tumhare bina

repeat the whole tabs



Can you share this message with your friends
Hey guys please like my Facebook page

https://m.facebook.com/Acoustic-Zaiffi-1039060439569680/?ref=bookmarks

And also subscribe to my Youtube channel

https://www.youtube.com/channel/UC86jX8v-SzgBsGRFVBwOa2Q
tabs and chords, guitar tabs, music contests, music covers, songsterr, reverbnation, renditions, tabulature, bollywood chords, ultimate guitar, yousician, guitar lessons, torrins, fender, gibson, acoustic guitar, electric guitar, youtube covers, gootar, guitar tuner, A-Z tabs, 911 tabs