Guitar Tabs for Humari adhoori kahani

Tabs for Song : humari adhori kahani

paas aaye
E|--------------------
B|--------------------
G|--------------------
D|--2--2-----0--2-----
A|--------------------
E|--------------------

dooriya fir bhi kam na hui
E|--------------------------------------------
B|--------1--3--0-----------------------------
G|-----2--------------0--2-----0--------------
D|--2--------------------------------3--3-----
A|--------------------------------------------
E|--------------------------------------------

ek adhoori si humari kahaani rahi
E|--------------------------------------------------------
B|-----------------------1--3--0--------------------------
G|--------------------2-----------0--2-----0-----0--------
D|--2--2--0--2-----2--------------------------------3-----
A|--------------------------------------------------------
E|--------------------------------------------------------

aasmaan ko zameen ye zaruri nahi
E|--------------------------------------------------------
B|--------0--1-----------------------0--1-----------------
G|--2--------------2--0--2-----2--------------2--0--2-----
D|--------------------------------------------------------
A|--------------------------------------------------------
E|--------------------------------------------------------

jaa mile..ja mile
E|--------------------------------
B|--------------------------------
G|--0--2--0-----------------------
D|--------------0-----3-----2-----
A|--------------------------------
E|--------------------------------

ishq saccha wahi ,jisko milti nhi manzille
E|-----------------------------------------------------------
B|--------0--1--------------------------0--1-----------------
G|--2--------------2--0--2--------2--------------2--0--2-----
D|-----------------------------------------------------------
A|-----------------------------------------------------------
E|-----------------------------------------------------------

manzile ..manzille....
E|--------------------------------
B|--------------------------------
G|--0--2--0--0--------------------
D|-----------------0-----3--2-----
A|--------------------------------
E|--------------------------------

rang thay noor tha
E|--------0-----0-----0-----
B|-----3-----3-----3--------
G|--0-----------------------
D|--------------------------
A|--------------------------
E|--------------------------

jab kareeb tu tha
E|-----0--1--0--1--0--1-----
B|--3-----------------------
G|--------------------------
D|--------------------------
A|--------------------------
E|--------------------------

ek jannat sa tha ye jahan
E|--1--0-----------------3--1--0-----1--0--------
B|--------3--1--3--1--3--------------------3-----
G|-----------------------------------------------
D|-----------------------------------------------
A|-----------------------------------------------
E|-----------------------------------------------

waqt ki reat per
E|--------0-----0-----0-----
B|-----3-----3-----3--------
G|--0-----------------------
D|--------------------------
A|--------------------------
E|--------------------------

kuch mere naam sa
E|-----0--1--0--1--0--1-----
B|--3-----------------------
G|--------------------------
D|--------------------------
A|--------------------------
E|--------------------------

likh ke chorr gya tu kahan
E|--1--0-----------------3--1--0-----1--0-----------
B|--------3--1--3--1--3--------------------3--1-----
G|--------------------------------------------------
D|--------------------------------------------------
A|--------------------------------------------------
E|--------------------------------------------------

humari adhori kahani 
E|--------------------------------------
B|--1--0--------------0-----------0-----
G|--------2-----2--2--------0--2--------
D|--------------------------------------
A|--------------------------------------
E|--------------------------------------

humari adhori kahani
E|--1--0--0-----------------------
B|--------------------------------
G|-----------2--0--0--------------
D|--------------------0--3--2--2--
A|--------------------------------
E|--------------------------------
tabs and chords, guitar tabs, music contests, music covers, songsterr, reverbnation, renditions, tabulature, bollywood chords, ultimate guitar, yousician, guitar lessons, torrins, fender, gibson, acoustic guitar, electric guitar, youtube covers, gootar, guitar tuner, A-Z tabs, 911 tabs