Guitar Tabs for hum honge kaamyaab

Tabs for Song : hum honge kaamyaab

hum honge kaamyaab
E|--------------------------------
B|--------------------------------
G|--------0--0--2--2--0-----------
D|--2--3-----------------3--2-----
A|--------------------------------
E|--------------------------------

hum honge kaamyaab
E|--------------------------------
B|--------------------------------
G|--------0--0--2--2--0-----------
D|--2--3-----------------3--2-----
A|--------------------------------
E|--------------------------------

hum honge kaamyaab
E|--------------------------
B|-----------------0--1-----
G|--------0--0--2-----------
D|--2--3--------------------
A|--------------------------
E|--------------------------

ekk dinn
E|-----------------------------
B|---1h3--1--0-----0-----------
G|--------------2-----2--0-----
D|-----------------------------
A|-----------------------------
E|-----------------------------

ho man mein hai vishwaas
E|-----------------------------
B|-----0--1--1--1--0--0--------
G|--2--------------------2-----
D|-----------------------------
A|-----------------------------
E|-----------------------------

poora h vishwaas
E|--------------------
B|--0--0--------------
G|--------2--2--0-----
D|--------------------
A|--------------------
E|--------------------

hum honge kaamyaab ekk din
E|-----------------------------------
B|-----------------------------------
G|--------0--0-----------------------
D|--2--3-----------3--2--0-----------
A|--------------3-----------3--3-----
E|-----------------------------------


tabs and chords, guitar tabs, music transcription, music technology, deep learning, music information retrieval, transcribe into tabs & chords, chordify, music renditions, songsterr, reverbnation, tabulature, bollywood chords, ultimate guitar, yousician, guitar lessons, acoustic guitar, electric guitar, guitar tuner, 911 tabs