Guitar Tabs for Hoyto Tomari Jonno

(/) Slide Up  (\) Slide Down  (h) Hammer On  (p) Pull Off  (b) Bend (r) Release (v) Vibrato (x) Muted

Tabs for Song : 

Hoyto Tomari Jonno
E|--3--3-----------4--4--
B|--------6--6--4--------
G|-----------------------
D|-----------------------
A|-----------------------
E|-----------------------
Hoya6i pream a j bonno
E|-----------------3--3--
B|--6--6--4--4--3--------
G|-----------------------
D|-----------------------
A|-----------------------
E|-----------------------
jani tumi onnoo
E|--------------3-----------
B|--4--4--3--3-----4--6--6--
G|--------------------------
D|--------------------------
A|--------------------------
E|--------------------------
asay hath barai
E|--------------
B|-----3--3--4--
G|--5-----------
D|--------------
A|--------------
E|--------------

Song lyrics here
E|--
B|--
G|--
D|--
A|--
E|--

Paste any tab in acousterr's tab maker and we'll play it !!!
Now supports capo and sound effects for vibrato/pull-off/hammer/bends/mutes etc !!! Checkout help section
tabs and chords, guitar tabs, music transcription, music technology, deep learning, music information retrieval, transcribe into tabs & chords, chordify, music renditions, songsterr, reverbnation, tabulature, bollywood chords, ultimate guitar, yousician, guitar lessons, acoustic guitar, electric guitar, guitar tuner, 911 tabs