"how To Train Your Dragon" Steps One And Two - Guitar Tabs

(/) Slide Up  (\) Slide Down  (h) Hammer On  (p) Pull Off  (b) Bend (r) Release (v) Vibrato (x) Muted

Step One

E|--3-----3--5--2-----2--3--0-----------------------
B|-----3-----------3-----------3--3--1--1--0--------
G|--------------------------------------------2--0--
D|--------------------------------------------------
A|--------------------------------------------------
E|--------------------------------------------------

Step Two

E|--3-----------3-----5-----2-----------2-----3-----0-----------------------------------------------
B|--------3-----------------------3-----------------------3-----3-----1-----1-----0-----------------
G|-----0-----0-----0-----0-----0-----0-----0-----0-----0-----0-----0-----0-----0-----0--2--2--0--0--
D|--------------------------------------------------------------------------------------------------
A|--------------------------------------------------------------------------------------------------
E|--------------------------------------------------------------------------------------------------



Song Within G Scale

E|--------------------------------------0--2--3--------3--2--0--------------------------------------
B|-----------------------------0--1--3--------------------------3--1--0-----------------------------
G|-----------------------0--2--------------------------------------------2--0-----------------------
D|--------------0--2--4--------------------------------------------------------4--2--0--------------
A|-----0--2--3--------------------------------------------------------------------------3--2--0-----
E|--3--------------------------------------------------------------------------------------------3--





tabs and chords, guitar tabs, music transcription, music technology, deep learning, music information retrieval, transcribe into tabs & chords, chordify, music renditions, songsterr, reverbnation, tabulature, bollywood chords, ultimate guitar, yousician, guitar lessons, acoustic guitar, electric guitar, guitar tuner, 911 tabs