How To Train Your Dragon Step 1 - Guitar Tabs

(/) Slide Up  (\) Slide Down  (h) Hammer On  (p) Pull Off  (b) Bend (r) Release (v) Vibrato (x) Muted


E|--3-----3--5--2-----2--3--0-----------------------
B|-----3-----------3-----------3--3--1--1--0--------
G|--------------------------------------------2--0--
D|--------------------------------------------------
A|--------------------------------------------------
E|--------------------------------------------------

Song uses notes from this G scale
E|-----------------0--2--3--
B|--------0--1--3-----------
G|--0--2--------------------
D|--------------------------
A|--------------------------
E|--------------------------



tabs and chords, guitar tabs, music transcription, music technology, deep learning, music information retrieval, transcribe into tabs & chords, chordify, music renditions, songsterr, reverbnation, tabulature, bollywood chords, ultimate guitar, yousician, guitar lessons, acoustic guitar, electric guitar, guitar tuner, 911 tabs