Guitar Tabs for How To Play Highlife Guitar Gosple Praises 2

(/) Slide Up  (\) Slide Down  (h) Hammer On  (p) Pull Off  (b) Bend (r) Release (v) Vibrato (x) Muted

Tabs & Chords
BPM : 144.0
Check Track 2 for Chord Positions 

       G                          Cm       G                                         C     A  
E|--------------------------------------------------------------------------------------------
B|--------------------------------------------------------------------------------------------
G|-----0--0-----0--0-----0--0-----0--0-----0-----0--0-----0--0--------0--------0--0--0--------
D|-----------------------------------------------------------------0-----0--------------------
A|--------------------------------------------------------------------------------------------
E|-----------------------------------------------------------------------------------------12-

             E        A              D        A     E     A                                   E  
E|--------------------------------------------------------------------------9--------------------
B|--------------------0--------------------------------------------------------12-10----11----9--
G|--------------0--0--------0-----------0-----0-----------0-----0--------0-----------------------
D|-----------------------------------0-----------------------------------------------------------
A|-----12----------------------0-----------------------------------------------------------------
E|-----------12----------------------------------7--12----------------12-------------------------

                   A           D                 A                                
E|--0-----------------9-----------14----10----------------------12----------9-----
B|-----------------------------10-------------------------12----------10-12-------
G|-----------------------------------------------0-----------------------------0--
D|-----------------------------------------11-------------------------------------
A|-----------9-----------12----------------------------------------0--------------
E|-----12----------12----------------------------------12-------------------------

Guitar Tabs for How To Play Highlife Guitar Gosple Praises 2






       G                          Cm       G                                         C     A  
E|-----3--------------------------3--------3-----------------------------------------0-----0--
B|-----3--------------------------4--------3-----------------------------------------1-----2--
G|-----4--------------------------5--------4-----------------------------------------0-----2--
D|-----5--------------------------5--------5-----------------------------------------2-----2--
A|-----5--------------------------3--------5-----------------------------------------3-----0--
E|-----3-----------------------------------3--------------------------------------------------

             E        A              D        A     E     A                                   E  
E|-----------0--------0--------------2--------0-----0-----0-----------------------------------0--
B|-----------0--------2--------------3--------2-----0-----2-----------------------------------0--
G|-----------1--------2--------------2--------2-----1-----2-----------------------------------1--
D|-----------2--------2--------------0--------2-----2-----2-----------------------------------2--
A|-----------2--------0-----------------------0-----2-----0-----------------------------------2--
E|-----------0--------------------------------------0-----------------------------------------0--

                   A           D                 A                                
E|-----------------0-----------2-----------------0--------------------------------
B|-----------------2-----------3-----------------2--------------------------------
G|-----------------2-----------2-----------------2--------------------------------
D|-----------------2-----------0-----------------2--------------------------------
A|-----------------0-----------------------------0--------------------------------
E|--------------------------------------------------------------------------------

tabs and chords, guitar tabs, music transcription, music technology, deep learning, music information retrieval, transcribe into tabs & chords, chordify, music renditions, songsterr, reverbnation, tabulature, bollywood chords, ultimate guitar, yousician, guitar lessons, acoustic guitar, electric guitar, guitar tuner, 911 tabs