Guitar Tabs for How Far I'll Go - Moana

(/) Slide Up  (\) Slide Down  (h) Hammer On  (p) Pull Off  (b) Bend (r) Release (v) Vibrato (x) Muted

Tabs for Song : 
Capo on 4th fret
Song lyrics here
E|--------------------------------------0--0-----0-----------------
B|--1-----1-----1-----3-----3-----3-----------------3--1--0--------
G|-----0-----0-----0-----0-----0-----0-----------------------2-----
D|-----------------------------------------------------------------
A|-----------------------------------------------------------------
E|-----------------------------------------------------------------

E|--------------------------------------0--0-----0-----------------
B|--1-----1-----1-----3-----3-----3-----------------3--1--0--------
G|-----0-----0-----0-----0-----0-----0-----------------------2-----
D|-----------------------------------------------------------------
A|-----------------------------------------------------------------
E|-----------------------------------------------------------------

E|--------------------------------------------------------0--0--------0--0--
B|--------1--1--------1--1--------3--3--------3--3-----1--------1--1--------
G|--0--0--------0--0-----------2--------2--2--------------------------------
D|--------------------------------------------------------------------------
A|--------------------------------------------------------------------------
E|--------------------------------------------------------------------------

E|-----0--1--------------------------0-----------0-----------0-----------3-----------
B|--3-----------1--------------1--3--------1--3--------1--3--------1--1--------3-----
G|--------------------1--------------------------------------------------------------
D|-----------------------------------------------------------------------------------
A|-----------------------------------------------------------------------------------
E|-----------------------------------------------------------------------------------

E|-----3--5--0-----------------3--5--0--------------------0-----------0-----------0-----
B|--1-----------------3-----1-----------------3-----1--3--------1--3--------1--3--------
G|--------------------------------------------------------------------------------------
D|--------------------------------------------------------------------------------------
A|--------------------------------------------------------------------------------------
E|--------------------------------------------------------------------------------------

E|--------3--------------3--5--0--------------------1--------------------
B|--1--1--------3-----1-----------------3-----1--3-----1--1--------------
G|-----------------------------------------------------------1--1--0--0--
D|-----------------------------------------------------------------------
A|-----------------------------------------------------------------------
E|-----------------------------------------------------------------------

E|-----------0--3-----------------0--3--------------0--3-----------------0--3--------
B|--1--1--3--------3-----1--1--3--------3-----1--3--------3-----1--1--3--------1-----
G|-----------------------------------------------------------------------------------
D|-----------------------------------------------------------------------------------
A|-----------------------------------------------------------------------------------
E|-----------------------------------------------------------------------------------

E|-----------------------------------------------0--0-----0--0-----------------
B|--1--------1--1--1--3--------1--3--3--3--1--3--------3--------1--3-----1-----
G|-----0-----------------2-----------------------------------------------------
D|-----------------------------------------------------------------------------
A|-----------------------------------------------------------------------------
E|-----------------------------------------------------------------------------

Song lyrics here
E|-----------------------------------------------0--0-----0--0--0-----------------
B|--1--------1--1--1--3--------1--3--3--3--1--3--------3-----------1--3-----1-----
G|-----0-----------------2--------------------------------------------------------
D|--------------------------------------------------------------------------------
A|--------------------------------------------------------------------------------
E|--------------------------------------------------------------------------------

E|-----------------------------3--0-----------------------0--0--------0--0-----0--1-----3-----4-----3--1-----
B|--------1--1--------1--1-----------3--------3--3-----1--------1--1--------3--------------------------------
G|--2--2--------2--2--------2-----------2--2-----------------------------------------------------------------
D|-----------------------------------------------------------------------------------------------------------
A|-----------------------------------------------------------------------------------------------------------
E|-----------------------------------------------------------------------------------------------------------

E|--3--1--0--------0-----------0-----------3--------------3--5--0--------------3--4-----3--1-----3--0-----------
B|-----------1--3--------1--3--------1--1--------3-----1-----------------3-----------------------------3--1-----
G|-----------------------------------------------------------------------------------------------------------0--
D|--------------------------------------------------------------------------------------------------------------
A|--------------------------------------------------------------------------------------------------------------
E|--------------------------------------------------------------------------------------------------------------

Paste any tab in acousterr's tab maker and we'll play it !!!
Now supports capo and sound effects for vibrato/pull-off/hammer/bends/mutes etc !!! Checkout help section
tabs and chords, guitar tabs, music transcription, music technology, deep learning, music information retrieval, transcribe into tabs & chords, chordify, music renditions, songsterr, reverbnation, tabulature, bollywood chords, ultimate guitar, yousician, guitar lessons, acoustic guitar, electric guitar, guitar tuner, 911 tabs