Guitar Tabs for Hotel-harmony

(/) Slide Up  (\) Slide Down  (h) Hammer On  (p) Pull Off  (b) Bend (r) Release (v) Vibrato (x) Muted

Tabs for Song : 
BPM : 200

Song lyrics here 

E|--13-10----
B|--------10-
G|-----------
D|-----------
A|-----------
E|-----------

Song lyrics here 
E|--12-9-----12-9-----12-9-----
B|--------10-------10-------10-
G|-----------------------------
D|-----------------------------
A|-----------------------------
E|-----------------------------

Use manual mode to free up cursor. Paste any tab in acousterr tab maker and we'll play it 

E|--12-8-----
B|--------8--
G|-----------
D|-----------
A|-----------
E|-----------

E|--10-7-----10-7-----10-7--15-
B|--------8--------8-----------
G|-----------------------------
D|-----------------------------
A|-----------------------------
E|-----------------------------


E|--10-6-----
B|--------6--
G|-----------
D|-----------
A|-----------
E|-----------

E|--8--5-----8--5-----8--5--13-
B|--------6--------6-----------
G|-----------------------------
D|-----------------------------
A|-----------------------------
E|-----------------------------

E|--10-6-----
B|--------8--
G|-----------
D|-----------
A|-----------
E|-----------

E|--12-9-----12-9-----12-9-----
B|--------10-------10-------10-
G|-----------------------------
D|-----------------------------
A|-----------------------------
E|-----------------------------



tabs and chords, guitar tabs, music transcription, music technology, deep learning, music information retrieval, transcribe into tabs & chords, chordify, music renditions, songsterr, reverbnation, tabulature, bollywood chords, ultimate guitar, yousician, guitar lessons, acoustic guitar, electric guitar, guitar tuner, 911 tabs