Guitar Tabs for Hotel California (intro)

(/) Slide Up  (\) Slide Down  (h) Hammer On  (p) Pull Off  (b) Bend (r) Release (v) Vibrato (x) Muted

Tabs for Song : 
BPM : 200

Capo at 7th fret

Song lyrics here
E|--0-----------------------0-----------------------------------0-----------------------
B|--0--------------0--------------------------------------0-----------0-----------------
G|--0--------0-----------0-----------0-----2-----------2-----2--------------------------
D|--2-----2-----2--------------------------------1-----------------------2--------------
A|--2-----------------------------------------------------------------------------------
E|--0-----------------------------------------------------------------------------------

Song lyrics here
E|-----------------0--------------------------------------------------------0-----------
B|-----------3-----------3-----------3-----------3-----------------0--------------------
G|--------2-----2-----------------2-----------2--------------0-----------0--------------
D|--0-----------------------0-----------------------------2-----2-----------------------
A|--------------------------------------0-----------4-----------------------------------
E|--------------------------------------------------------------------------------------

E|--------------------------0--------------------------------------3--------------------------------
B|-----------------1-----------------1-----------------------0-----------0--------------------------
G|-----------0-----------0--------------------0-----------0-----0--------------------0-----------0--
D|--------2-----2------------------------0h2--------0-----------------------------0-----------0-----
A|--3-----------------------------3-----------------------------------------2-----------------------
E|--------------------------------------------------------------------------------------3-----------

E|--------------------------0-----------------------------------------------0--
B|-----------------1-----------------------------0-----------------0-----------
G|-----------0-----------0-----------0-----------------------2-----------2-----
D|--------2-----2-----------------2-----------2-----------1-----1--------------
A|--0-----------------------------------------------2--------------------------
E|--------------------------------------0--------------------------------------

Paste any tab in acousterr's tab maker and we'll play it !!!
Now supports capo and sound effects for vibrato/pull-off/hammer/bends/mutes etc !!! Checkout help section


tabs and chords, guitar tabs, music transcription, music technology, deep learning, music information retrieval, transcribe into tabs & chords, chordify, music renditions, songsterr, reverbnation, tabulature, bollywood chords, ultimate guitar, yousician, guitar lessons, acoustic guitar, electric guitar, guitar tuner, 911 tabs