Guitar Tabs for Hotel California (intro)

(/) Slide Up  (\) Slide Down  (h) Hammer On  (p) Pull Off  (b) Bend (r) Release (v) Vibrato (x) Muted

Tabs for Song : 

Song lyrics here
E|--0--------------0--------
B|--0--------0-----------0--
G|--0-----0-----0-----0--2--
D|--2--2--------------------
A|--2-----------------------
E|--0-----------------------

E|-----------2--------
B|--------0-----0-----
G|-----2--------------
D|--1--------------1--
A|--------------------
E|--------------------

E|-----------0-----
B|--------3-----3--
G|-----2-----------
D|--0--------------
A|-----------------
E|-----------------

E|-----------------------------------0--
B|--------3--------0-----------0--------
G|-----2--------2-----------0-----0-----
D|--0--------------------2--------------
A|-----------0--------4-----------------
E|--------------------------------------

E|-----------------0--------------------
B|-----------1-----------1--------------
G|--------0-----0-----------------0-----
D|-----2---------------------0h2-----2--
A|--3-----------------3-----------------
E|--------------------------------------

E|-----------3-----------------------
B|--------0-----0--------0--------0--
G|-----0--------------0--------0-----
D|--0--------------------------------
A|-----------------2-----------------
E|--------------------------3--------

E|-----------------0-----------------
B|-----------1--------------------0--
G|--------2-----2--------2-----------
D|-----2--------------2--------2-----
A|--0--------------------------------
E|--------------------------0--------

E|-----------------2--
B|-----------0--------
G|--------2-----2-----
D|-----1--------------
A|--2-----------------
E|--------------------
tabs and chords, guitar tabs, music transcription, music technology, deep learning, music information retrieval, transcribe into tabs & chords, chordify, music renditions, songsterr, reverbnation, tabulature, bollywood chords, ultimate guitar, yousician, guitar lessons, acoustic guitar, electric guitar, guitar tuner, 911 tabs