Guitar Tabs for Hotel California - Eagles

(/) Slide Up  (\) Slide Down  (h) Hammer On  (p) Pull Off  (b) Bend (r) Release (v) Vibrato (x) Muted

Tabs for Song : 
BPM : 120

Song lyrics here 
E|--2--------2--7--------0--6--0--2--9--6-----5--0--5--7--5-----0--5-----0--2-----
B|-----0--3-----------3-----------------------------------------------------------
G|--------------------------------------------------------------------------------
D|--------------------------------------------------------------------------------
A|--------------------------------------------------------------------------------
E|--------------------------------------------------------------------------------

E|--2--7--2--7--2--0-----7-----3--------3-----7--3--5--7--10----5-----2--5--2--------2--
B|--------------------3-----------0--3-----------------------------3--------------3-----
G|--------------------------------------------------------------------------------------
D|--------------------------------------------------------------------------------------
A|--------------------------------------------------------------------------------------
E|--------------------------------------------------------------------------------------

E|--0--------3--7--------3--2-----0--2--9-----2--2--2--0--0--0--2-----2--2--0--0--0--
B|-----0--3-----------3--------------------------------------------------------------
G|-----------------------------3-----------------------------------------------------
D|-----------------------------------------------------------------------------------
A|-----------------------------------------------------------------------------------
E|-----------------------------------------------------------------------------------

E|--2--2--0--0--0--2-----2--2--2--0--0--0-----2--2--2--0--------2--------2--2--2--0--------
B|--------------------------------------------------------3--3--------3--------------3--3--
G|-----------------------------------------------------------------------------------------
D|-----------------------------------------------------------------------------------------
A|-----------------------------------------------------------------------------------------
E|-----------------------------------------------------------------------------------------

E|-----0--0--0--0--0-----0-----2-----2--2--2--2--0--0--2-----2--2--3--2--2--3--2--
B|--0-----------------3-----3-----------------------------------------------------
G|--------------------------------------------------------------------------------
D|--------------------------------------------------------------------------------
A|--------------------------------------------------------------------------------
E|--------------------------------------------------------------------------------

E|--0--2--2--2--0--0--------0--0--0-----0--0--2-----2--2--2--2--2--2--2--0--0--0--
B|-----------------------0-----------3--------------------------------------------
G|--------------------------------------------------------------------------------
D|--------------------------------------------------------------------------------
A|--------------------------------------------------------------------------------
E|--------------------------------------------------------------------------------

E|--2--2--2--0--------2-----------2-----------0--0--0--0--0-----0-----2-----0--2--0--2--5--2--
B|--------------3--3--------3--3-----3--3--------------------3-----3--------------------------
G|--------------------------------------------------------------------------------------------
D|--------------------------------------------------------------------------------------------
A|--------------------------------------------------------------------------------------------
E|--------------------------------------------------------------------------------------------

E|--3--3--3--3--3--3--5--3--3--2-----2--2--2--0--0-----2--2--2--0--0-----0--0--0-----------
B|--------------------------------------------------------------------------------3--3-----
G|-----------------------------------------------------------------------------------------
D|-----------------------------------------------------------------------------------------
A|-----------------------------------------------------------------------------------------
E|-----------------------------------------------------------------------------------------

E|--3--3--3--3-----3--3--3--3--5--3--3--2-----2--2--2--0--0--2--3--3--2--2--
B|--------------------------------------------------------------------------
G|--------------------------------------------------------------------------
D|--------------------------------------------------------------------------
A|--------------------------------------------------------------------------
E|--------------------------------------------------------------------------

E|--2--2--3--2--2--3--2-----2--2--2--0--0--2-----2--0--0--0--2--0--0--2-----0--2--2--0--------
B|--------------------------------------------------------------------------------------3--3--
G|--------------------------------------------------------------------------------------------
D|--------------------------------------------------------------------------------------------
A|--------------------------------------------------------------------------------------------
E|--------------------------------------------------------------------------------------------

E|--2--2--2--0--------2-----2--2--0--------------0--0--0-----------0--0--0--------
B|--------------3--3-----------------3--3-----3-----------3-----3-----------3-----
G|--------------------------------------------------------------------------------
D|--------------------------------------------------------------------------------
A|--------------------------------------------------------------------------------
E|--------------------------------------------------------------------------------

E|--0-----2--0-----2--2-----2--0--2-----2--3--2--3--2--------2--2--2--0--2-----0--0--0--0--0--0-----2--
B|-----3--------3--------------------------------------------------------------------------------3-----
G|-----------------------------------------------------------------------------------------------------
D|-----------------------------------------------------------------------------------------------------
A|-----------------------------------------------------------------------------------------------------
E|-----------------------------------------------------------------------------------------------------

E|--2--2--2--2--2--0--0--------2--0--------2-----------------------------
B|--------------------------3--------3--3--------0--------3--3--0-----3--
G|--------------------------------------------------2--------------2-----
D|-----------------------------------------------------------------------
A|-----------------------------------------------------------------------
E|-----------------------------------------------------------------------

E|--0--0--0--0--0-----0-----2-----0--2--2--5--2--2-----0--2--5--7--10----5--7--0--------0--2-----
B|-----------------3-----3-----------------------------------------------------------3--------3--
G|-----------------------------------------------------------------------------------------------
D|-----------------------------------------------------------------------------------------------
A|-----------------------------------------------------------------------------------------------
E|-----------------------------------------------------------------------------------------------

E|-----------------------0--2-----------------0--2--------------------------------------------0--0--
B|-----0--3--0--------3--------3--0-----0--3--------3--0-----0-----0--3--0-----------------0--------
G|--3-----------3--------------------3--------------------3-----3-----------2-----2--1--------------
D|-----------------------------------------------------------------------------4--------------------
A|--------------------------------------------------------------------------------------------------
E|--------------------------------------------------------------------------------------------------

E|-----0-----------0-----------------2--5--2--0--------------------------------
B|--3-----3--0--0-----0--------------------------3-----3--2--3-----3--3--3-----
G|-----------------------2--0--2--2-----------------4--------------------------
D|-----------------------------------------------------------------------------
A|-----------------------------------------------------------------------------
E|-----------------------------------------------------------------------------

E|-----0--2--0-----0--3--3--3--2--0-----2--2--5--2--0--7--2--0--2--
B|--3-----------3--------------------3-----------------------------
G|-----------------------------------------------------------------
D|-----------------------------------------------------------------
A|-----------------------------------------------------------------
E|-----------------------------------------------------------------

tabs and chords, guitar tabs, music transcription, music technology, deep learning, music information retrieval, transcribe into tabs & chords, chordify, music renditions, songsterr, reverbnation, tabulature, bollywood chords, ultimate guitar, yousician, guitar lessons, acoustic guitar, electric guitar, guitar tuner, 911 tabs