Guitar Tabs for Katy Perry - Hot N Cold

refrain :

E|--------3-----3--3-----3--------3-----3--3-----3-----0--5-----5--7--------------5-----5--7-----------------
B|--3--3--3--------------------3--3-----------------------5--------------5--------5--------------5-----------
G|--------4-----------------------2-----------------------5--------------------7--5--------------------7-----
D|--------5-----------------------0-----------------------7-----------------------5--------------------------
A|-----------------------------------------------------------------------------------------------------------
E|-----------------------------------------------------------------------------------------------------------


E|--------7--7--7--7--7--7--5--------5--------------------5--5--5--5--5--5--3--------3--------------
B|--------------------------------------------------------------------------------------------------
G|--------------------------7-----------------------------------------------5-----------------------
D|--5-----------------------------------------------7-----------------------------------------------
A|--------------------------------------------------------------------------------------------------
E|--------------------------------------------------------------------------------------------------

'power chords' :

E|--------------------------------------------------------------------------------------------
B|--------------------------------------------------------------------------------------------
G|--------------------------------------------------5-----------------------5-----------------
D|--5-----------------------4-----------------------7-----------------------5-----------------
A|--5-----------------------5-----------------------7-----------------------3-----------------
E|--3-----------------------5-----------------------------------------------------------------

tabs and chords, guitar tabs, music contests, music covers, songsterr, reverbnation, renditions, tabulature, bollywood chords, ultimate guitar, yousician, guitar lessons, torrins, fender, gibson, acoustic guitar, electric guitar, youtube covers, gootar, guitar tuner, A-Z tabs, 911 tabs