Guitar Tabs for Pavlov's Trigger

x 2 until drums kick in
D|--------------------------------------------------------------------------
A|--------------------------------------------------------------------------
D|--------------------------------------------------------------------------
D|--------------------------------------------------------------------------
A|--------------------------------------------------------------------------
D|--5--7--8--5--7--8--5--7--8--5--7--8--4--5--7--4--5--7--4--5--7--4--5--7--

x2
D|--5--7--8--5--7--8--5--7--8--5--7--8--4--5--7--4--5--7--4--5--7--4--5--7--
A|--5--7--8--5--7--8--5--7--8--5--7--8--4--5--7--4--5--7--4--5--7--4--5--7--
D|--5--7--8--5--7--8--5--7--8--5--7--8--4--5--7--4--5--7--4--5--7--4--5--7--
D|--5--7--8--5--7--8--5--7--8--5--7--8--4--5--7--4--5--7--4--5--7--4--5--7--
A|--5--7--8--5--7--8--5--7--8--5--7--8--4--5--7--4--5--7--4--5--7--4--5--7--
D|--5--7--8--5--7--8--5--7--8--5--7--8--4--5--7--4--5--7--4--5--7--4--5--7--

x3 (these are bar chords, I just couldn't be arsed
D|-----------------------------------------------------
A|-----------------------------------------------------
D|-----------------------------------------------------
D|-----------------------------------------------------
A|-----------------------------------------------------
D|--13-12-10-8--10-12-10-8--7--8--5--5--12-5--5--17-15-

x1 (these are bar too, it's the ending riff of the chorus)
D|--------------------------------------------------------------------------------
A|--------------------------------------------------------------------------------
D|--------------------------------------------------------------------------------
D|--------------------------------------------------------------------------------
A|--------------------------------------------------------------------------------
D|--13-12-10-8--10-12-10-8--7--8--7--7--7--7--7--7--7--7--4--4--4--4--4--4--4--4--

x 4 
D|--------------------------------------------------------------------------
A|--------------------------------------------------------------------------
D|--------------------------------------------------------------------------
D|--------------------------------------------------------------------------
A|--------------------------------------------------------------------------
D|--5--7--8--5--7--8--5--7--8--5--7--8--4--5--7--4--5--7--4--5--7--4--5--7--

x3 (again, these are bar chords, I just couldn't be arsed)
D|-----------------------------------------------------
A|-----------------------------------------------------
D|-----------------------------------------------------
D|-----------------------------------------------------
A|-----------------------------------------------------
D|--13-12-10-8--10-12-10-8--7--8--5--5--12-5--5--17-15-

x1 (these are bar too, it's the ending riff of the chorus)
D|--------------------------------------------------------------------------------
A|--------------------------------------------------------------------------------
D|--------------------------------------------------------------------------------
D|--------------------------------------------------------------------------------
A|--------------------------------------------------------------------------------
D|--13-12-10-8--10-12-10-8--7--8--7--7--7--7--7--7--7--7--4--4--4--4--4--4--4--4--

x 4 
D|--------------------------------------------------------------------------
A|--------------------------------------------------------------------------
D|--------------------------------------------------------------------------
D|--------------------------------------------------------------------------
A|--------------------------------------------------------------------------
D|--5--7--8--5--7--8--5--7--8--5--7--8--4--5--7--4--5--7--4--5--7--4--5--7--

x3 (again, these are bar chords, I just couldn't be arsed)
D|-----------------------------------------------------
A|-----------------------------------------------------
D|-----------------------------------------------------
D|-----------------------------------------------------
A|-----------------------------------------------------
D|--13-12-10-8--10-12-10-8--7--8--5--5--12-5--5--17-15-

x1 (these are bar too, it's the ending riff of the chorus)
D|--------------------------------------------------------------------------------
A|--------------------------------------------------------------------------------
D|--------------------------------------------------------------------------------
D|--------------------------------------------------------------------------------
A|--------------------------------------------------------------------------------
D|--13-12-10-8--10-12-10-8--7--8--7--7--7--7--7--7--7--7--4--4--4--4--4--4--4--4--

Hard stabs x2, fast strumming x2 then mute on last note (bar chords)
D|--------------------------------------------
A|--------------------------------------------
D|--------------------------------------------
D|--------------------------------------------
A|--------------------------------------------
D|--5--5--5--5--5--5--5--4--4--7--7--8--8--8--

"Anything you can do" sample plays. Jack will do a starting hit, so jump in after that.

x12
D|--------------------------------------
A|--------------------------------------
D|--------------------------------------
D|--------------------------------------
A|--5--5--5--16-16-16-15-15-15-14-14-14-
D|--5--5--5--17-17-17-16-16-16-15-15-15-

x2
D|--------------------------------------------------------------------------
A|--------------------------------------------------------------------------
D|--------------------------------------------------------------------------
D|--------------------------------------------------------------------------
A|--------------------------------------------------------------------------
D|--5--5--5--17-17-17-16-16-16-15-15-15-5--5--5--17-17-17-12-12-12-13-13-13-

It goes 3/4 here, just a heads up.

Stabs x2, fast strumming x3 (All barred)
D|--------------------------------------------------------------
A|--------------------------------------------------------------
D|--------------------------------------------------------------
D|--------------------------------------------------------------
A|--------------------------------------------------------------
D|--5--5--5--12-13-5--5--5--12-11-5--5--5--12-13-5--5--5--3--4--

D|--
A|--
D|--
D|--
A|--
D|--

tabs and chords, guitar tabs, music contests, music covers, songsterr, reverbnation, renditions, tabulature, bollywood chords, ultimate guitar, yousician, guitar lessons, torrins, fender, gibson, acoustic guitar, electric guitar, youtube covers, gootar, guitar tuner, A-Z tabs, 911 tabs