Bass Tabs for Frank Black - Horrible Day

This is my first tab -- I hope it's correct
----------------------------------------------------------------------------------------------------

(/) Slide Up  (\) Slide Down  (h) Hammer On  (p) Pull Off  (b) Bend (r) Release (v) Vibrato (x) Muted



[INTRO]

G|--------------------------------------------------
D|--------------------------------------------------
A|--------------------------------------------------
E|--------------------------------------------------

[VERSE]

G|--------------------------------------------------------------------------------------------------
D|--------------------------------------------------------------------------------------------------
A|--------------------------------------------------------------------------------------------------
E|--------------------------------------------------------------------------------------------------
  
G|--------------------------------------------------------------------------------------------------
D|--------------------------------------------------------------------------------------------------
A|--------------------------------------------------------------------------------------------------
E|--------------------------------------------------------------------------------------------------

G|--------------------------------------------------------------------------------------------------
D|--------------------------------------------------------------------------5--5--7--5--3--3--2--0--
A|--3--3--2--3--3--3--2--3--------------3--3--2--3--3--3--2--3--3--3--5--7--------------------------
E|--------------------------1--1--3--1--------------------------------------------------------------

G|--------------------------------------------------------------------------------------------------
D|--------------------------------------------------------------5--5--7--5--------------------------
A|--0--2--3--5--7--5--3--2--3--3--2--3--------------3--3--5--3--------------3--3--5--7--3--------2--
E|--------------------------------------1--1--3--1-----------------------------------------3--5-----

[CHORUS]

G|--------------------------------------------------------------------------------------------------
D|--------------5--5--3--2--3--3--2--0-----------------------------------------------------2--4--5--
A|--3--3--5--7--------------------------3--3--5--7--3--3--5--7--3--3--2-----------2--3--5-----------
E|-----------------------------------------------------------------------3--3--5--------------------

G|-----------------------------------------------------------------------------------------------------------
D|--------------5--5--7--5-----------------------------------------5--5--5--5--7--5--------------------------
A|--3--3--5--7--------------------------------------3--3--3--5--7--------------------3--3--3--2--0--0--0--2--
E|--------------------------5-----3-----1--1--3--1-----------------------------------------------------------

[SOLO]

G|--------------------------------------------------------------------------------------------------
D|--------------------------------------------------------------------------5--5--7--5--3--3--2--0--
A|--3--3--2--3--3--3--2--3--------------3--3--2--3--3--3--2--3--3--3--5--7--------------------------
E|--------------------------1--1--3--1--------------------------------------------------------------

G|--------------------------------------------------------------------------
D|--------------------------------------5--5--7--5--------------5--5--7--5--
A|--0--2--3--5--7--5--3--2--3--3--5--3--------------3--3--5--3--------------
E|--------------------------------------------------------------------------

[CHORUS]

G|--------------------------------------------------------------------------------------------------
D|--------------5--5--3--2--3--3--2--0-----------------------------------------------------2--4--5--
A|--3--3--5--7--------------------------3--3--5--7--3--3--5--7--3--3--2-----------2--3--5-----------
E|-----------------------------------------------------------------------3--3--5--------------------

G|-----------------------------------------------------------------------------------------------------------
D|--------------5--5--7--5-----------------------------------------5--5--5--5--7--5--------------------------
A|--3--3--5--7--------------------------------------3--3--3--5--7--------------------3--3--3--2--0--0--0--2--
E|--------------------------5-----3-----1--1--3--1-----------------------------------------------------------

[VERSE]

G|--------------------------------------------------------------------------------------------------
D|--------------------------------------------------------------------------------------------------
A|--3-----------------------------------3-----------------------------------------------------------
E|--------------------------1-----------------------------------------------3-----------1-----------

G|--------------------------------------------------------------------------------------------------
D|--------------------------------------------------------------5--5--7--5--------------------------
A|--0--2--3--5--7--5--3--2--3--3--2--3--------------3--3--5--3--------------3--3--5--7--3--------2--
E|--------------------------------------1--1--3--1-----------------------------------------3--5-----

[CHORUS]

G|--------------------------------------------------------------------------------------------------
D|--------------5--5--3--2--3--3--2--0-----------------------------------------------------2--4--5--
A|--3--3--5--7--------------------------3--3--5--7--3--3--5--7--3--3--2-----------2--3--5-----------
E|-----------------------------------------------------------------------3--3--5--------------------

G|-----------------------------------------------------------------------------------------------------------
D|--------------5--5--7--5-----------------------------------------5--5--5--5--7--5--------------------------
A|--3--3--5--7--------------------------------------3--3--3--5--7--------------------3--3--3--2--0--0--0--2--
E|--------------------------5-----3-----1--1--3--1-----------------------------------------------------------


G|--------------------------------------------------------------------------------------------------------------------
D|-----------------5--5--5--5--7--5-----------------------------------------5--5--5--5--7--5--------------------------
A|--3--3--3--5--7--------------------3--3--3--2--0--0--0--2--3--3--3--5--7--------------------3-----------------------
E|--------------------------------------------------------------------------------------------------------1-----------

G|--------------------------------------------------------------------------------------------------
D|--------------------------------------------------------------------------------------------------
A|--3-----------------------------------------------------------------------------------------------
E|--------------------------------------------------------------------------------------------------




tabs and chords, guitar tabs, music transcription, music technology, deep learning, music information retrieval, transcribe into tabs & chords, chordify, music renditions, songsterr, reverbnation, tabulature, bollywood chords, ultimate guitar, yousician, guitar lessons, acoustic guitar, electric guitar, guitar tuner, 911 tabs