Guitar Tabs for Homage (bayshore Drive Cover)

(/) Slide Up  (\) Slide Down  (h) Hammer On  (p) Pull Off  (b) Bend (r) Release (v) Vibrato (x) Muted

Tabs for Song : 

Song lyrics here
E|--------------------------------------------------------------------------------------------------
B|--------------------------------------------------------------------------------------------------
G|--4--------4-----4-----4-----------4-----------4--4--------4-----4-----4-----------4-----------4--
D|--2-----2--2-----2-----2--------2-----------4-----2-----2--2-----2-----2--------2-----------4-----
A|--0--------0-----0-----0-----4--------2-----------0--------0-----0-----0-----4--------2-----------
E|--------------------------------------------------------------------------------------------------

E|-----------------------------------------------------------------------------------------------------
B|-----------------------------------------------------------------------------------------------------
G|--4--------4-----4-----4-----------4-----------4--4--------4-----4-----4-----------4-----------4-----
D|--2-----2--2-----2-----2--------2-----------4-----2-----2--2-----2-----2-----------------------------
A|--0--------0-----0-----0-----4--------2-----------0--------0-----0-----0-----------------------------
E|-----------------------------------------------------------------------------2--2-----4-----4--------

E|-----------------------------------------------------------------------------------------------------
B|-----------------------------------------------------------------------------------------------------
G|-----------------------------------------------------------------------------------------------------
D|--2-----2-----2-----2-----------------------------2-----2-----2-----2--------------------------------
A|-----0-----0-----0-----0--2-----2-----2-----2--------0-----0-----0-----0--2-----2-----2-----2--------
E|-----------------------------0-----0-----0-----0-----------------------------0-----0-----0-----0-----
I',m getting older but I feel the same.
I walk downtown where they still no my name.
E|-----------------------------------------------------------------------------------------------
B|-----------------------------------------------------------------------------------------------
G|--------------------------------------------------------4-----------4-----4--------------------
D|--2-----2-----2-----2-----------------------------------------------------2--------------------
A|-----0-----0-----0-----0--2-----2-----2-----2-----------------------------0--------------------
E|-----------------------------0-----0-----0-----0--2--2  ------4--4-----------------------------

E|-----------------------------------------------------------x-----x-----x-----------------------------
B|-----------------------------------------------------------4-----4-----4-----------------------------
G|--4--------4-----4-----4-----------4-----------4--4--------4-----4-----4-----------4-----------4-----
D|--2-----2--2-----2-----2--------2-----------4-----2-----2--2-----2-----2--------2-----------4--------
A|--0--------0-----0-----0-----4-------	2-----------0--------0-----0-----0-----4--------2--------------
E|-----------------------------------------------------------------------------------------------------

E|--------------------------------------------------------------------------------------------------------------------------------------------
B|--------------------------------------------------------------------------------------------------------------------------------------------
G|--------------------------------------------------------------------------------------------------------------------------------------------
D|-----2-----2-----2-----2-----------------------------2--------2-----2-----2-----------------------------------------------------------------
A|--------0-----0-----0-----0--2-----2-----2-----2-----------0-----0-----0-----0--2-----2-----2-----2-------------------------------------------
E|--------------------------------0-----0-----0-----0--------------------------------0-----0-----0-----0-----------------------------------------


Song lyrics here
E|--------------------------------------------------------------
B|--------------------------------------------------------------
G|--------------------------------------------------------------
D|--2-----2-----2-----2-----------------------------------------
A|-----0-----0-----0-----0--2-----2-----2-----2-----------------
E|-----------------------------0-----0-----0-----0--------------

E|-----------------------------------------------
B|-----------------------------------------------
G|--------4-----------4-----4--------------------
D|--------------------------2--------------------
A|--------------------------0--------------------
E|--2--2  ------4--4-----------------------------

E|--------------------------------------------------------------------------------------------------
B|--------------------------------------------------------------------------------------------------
G|--4--------4-----4-----4-----------4-----------4--4--------4-----4-----4-----------4-----------4--
D|--2-----2--2-----2-----2--------2-----------4-----2-----2--2-----2-----2--------2-----------4-----
A|--0--------0-----0-----0-----4--------2-----------0--------0-----0-----0-----4--------2-----------
E|--------------------------------------------------------------------------------------------------



E|-----------------------------------------------------------x-----x-----x--------------------------------
B|-----------------------------------------------------------4-----4-----4--------------------------------
G|--4--------4-----4-----4-----------4-----------4--4--------4-----4-----4-----------4-----------4--------
D|--2-----2--2-----2-----2--------2-----------4-----2-----2--2-----2-----2--------------------------------
A|--0--------0-----0-----0-----4-------	2-----------0--------0-----0-----0--------------------------------
E|-----------------------------------------------------------------------------2--2-----4-----4-----------

E|-----
B|-----
G|--	--
D|-----
A|-----
E|-----

Paste any tab in acousterr's tab maker and we'll play it !!!
Now supports capo and sound effects for vibrato/pull-off/hammer/bends/mutes etc !!! Checkout help section
tabs and chords, guitar tabs, music contests, music covers, songsterr, reverbnation, renditions, tabulature, bollywood chords, ultimate guitar, yousician, guitar lessons, torrins, fender, gibson, acoustic guitar, electric guitar, youtube covers, gootar, guitar tuner, A-Z tabs, 911 tabs