Guitar Tabs for Hit The Road Jack

(/) Slide Up  (\) Slide Down  (h) Hammer On  (p) Pull Off  (b) Bend (r) Release (v) Vibrato (x) Muted

Tabs for Song : 

Song lyrics here
E|--------------------------------------------------------------------0--0--5--5--8--8--7--------
B|--------------------------5--3--1--3-----------1--1--3--3--4--3--1--1-----0--------------------
G|--------------------------------------2-----2-----------------------2-----0-----8-----7--------
D|--------------------------------------------------------------------------------7-----6--------
A|--0-----------0--------------------0--------------------------------0-----------8-----7--------
E|-----3--1--0-----3--1--0-----------------3-----1--------0-----------------3--------------------

Song lyrics here
E|-----------------------------------------------------------------12-
B|--5--3--1--3-----------1--1--3--3--4--3--1-----------------10-10-9--
G|--------------2-----2-----------------------2--------------10-10-7--
D|--------------------------------------------2--------------10-10----
A|-----------0--------------------------------------0--------8--------
E|-----------------3-----1--------0-----------------------3--------0--

E|-----------------------------------0-----------------------------------------------------0--------
B|--3--5--5--1--3--3--1--3--3--1--3--------5--1--3--3--1--3--3--1--------------1--1--3--1-----------
G|-----------------------------------------------------------------2--2-----2-----------------------
D|--------------------------------------------------------------------------------------------------
A|--------0--------------------------------0-----------------------------------0--------------------
E|--------------3--------1--------------0-----------3--------1-----------0-----------3-----1--0-----

E|-----------------------------------
B|-----1--1--3--1--3--1--------------
G|--2--------------------2--2--2--1--
D|-----------------------------------
A|-----0-----------------------------
E|-----------------3--------1-----0--

Paste any tab in acousterr's tab maker and we'll play it !!!
Now supports capo and sound effects for vibrato/pull-off/hammer/bends/mutes etc !!! Checkout help section
tabs and chords, guitar tabs, music transcription, music technology, deep learning, music information retrieval, transcribe into tabs & chords, chordify, music renditions, songsterr, reverbnation, tabulature, bollywood chords, ultimate guitar, yousician, guitar lessons, acoustic guitar, electric guitar, guitar tuner, 911 tabs