Guitar Tabs for Hit Bass Tab

(/) Slide Up  (\) Slide Down  (h) Hammer On  (p) Pull Off  (b) Bend (r) Release (v) Vibrato (x) Muted

Tabs for Song : 

Song lyrics here

E|-----------------------------------------------------------------------------------------------
B|-----------------------------------------------------------------------------------------------
G|-----------------------------------------------------------------------------------------------
D|--5--5--5--0--0--0--0--2--2--2--2--------------------------0--0--0--0--2--2--2--2--------------
A|-----------------------------------3--3--3--3--------------------------------------3--3--3--3--
E|-----------------------------------------------3--3--3--3--------------------------------------

E|-----------------------------------------------------------------------------------------------
B|-----------------------------------------------------------------------------------------------
G|-----------------------------------------------------------------------------------------------
D|--5--5--5--0--0--0--0--2--2--2--2--------------------------------------------------------------
A|-----------------------------------2--2--2--2--3--3--3--3--2--2--2--2--0--0--0--0--0--0--0--0--
E|-----------------------------------------------------------------------------------------------


Song lyrics here
E|--------------------------------------------------------------------------------------------------------------------------------------------------------------------
B|--------------------------------------------------------------------------------------------------------------------------------------------------------------------
G|--------------------------------------------------------------------------------------------------------------------------------------------------------------------
D|--5--5--5--5--5--5--5--5--5--5--5--5--------------------------------------------------------------2--2--2--2--2--2--2--2--2--2--2--2--------------------------------
A|--------------------------------------4--4--4--4--5--5--5--5--5--5--5--5--5--5--5--5--5--5--5--5--------------------------------------1--1--1--1--2--2--2--2--2--2--
E|--------------------------------------------------------------------------------------------------------------------------------------------------------------------

Paste any tab in acousterr's tab maker and we'll play it !!!
Now supports capo and sound effects for vibrato/pull-off/hammer/bends/mutes etc !!! Checkout help section
tabs and chords, guitar tabs, music transcription, music technology, deep learning, music information retrieval, transcribe into tabs & chords, chordify, music renditions, songsterr, reverbnation, tabulature, bollywood chords, ultimate guitar, yousician, guitar lessons, acoustic guitar, electric guitar, guitar tuner, 911 tabs