Bass Tabs for Historia

(/) Slide Up  (\) Slide Down  (h) Hammer On  (p) Pull Off  (b) Bend (r) Release (v) Vibrato (x) Muted

Tabs for Song : 

Song lyrics here
G|-----8-----8--10----8-----7--------------------
D|--6-----6--------8-----8-----8--10----8--10-10v
A|-----------------------------------8-----------
E|-----------------------------------------------

G|--------8-----8--10----8-----7-----------------
D|--6--6-----6--------8-----8-----8--10-8--8--10v
A|-----------------------------------------------
E|-----------------------------------------------

Song lyrics here
G|--
D|--
A|--
E|--

Paste any tab in acousterr's tab maker and we'll play it !!!
Now supports capo and sound effects for vibrato/pull-off/hammer/bends/mutes etc !!! Checkout help section
tabs and chords, guitar tabs, music transcription, music technology, deep learning, music information retrieval, transcribe into tabs & chords, chordify, music renditions, songsterr, reverbnation, tabulature, bollywood chords, ultimate guitar, yousician, guitar lessons, acoustic guitar, electric guitar, guitar tuner, 911 tabs