Bass Tabs for Hip To Be Square - Huey Lewis & The News

(/) Slide Up  (\) Slide Down  (h) Hammer On  (p) Pull Off  (b) Bend (r) Release (v) Vibrato (x) Muted

Tabs for Song : 

Song lyrics here
G|-----------------------------------------------
D|-----------------------------------------------
A|---7\0--------------------------------5---7\0--
E|--------0--4--4--4--5--4--5-----5--7-----------

Song lyrics here
G|-----------------------------------------------------------
D|-----------------------------------------------------------
A|--------------------2--------------------------------------
E|--5-----3-----5-----------0--------2-----4-----5-----7--7--

G|-----------------------------------
D|-----2--------4--------6--------7--
A|-----------------------------------
E|--0--------2--------4--------5-----

Paste any tab in acousterr's tab maker and we'll play it !!!
Now supports capo and sound effects for vibrato/pull-off/hammer/bends/mutes etc !!! Checkout help section
tabs and chords, guitar tabs, music transcription, music technology, deep learning, music information retrieval, transcribe into tabs & chords, chordify, music renditions, songsterr, reverbnation, tabulature, bollywood chords, ultimate guitar, yousician, guitar lessons, acoustic guitar, electric guitar, guitar tuner, 911 tabs