Guitar Tabs for Hijo De La Luna

(/) Slide Up  (\) Slide Down  (h) Hammer On  (p) Pull Off  (b) Bend (r) Release (v) Vibrato (x) Muted

Tabs for Song : 
BPM : 200

Song lyrics here
D|-----0--1--5--0--------------0-----1--3--------0--1--5--0--------------0-----1--3-----1--3--5--8--5--3--
A|--3-----------------3-----3-----------------3-----------------3-----3-----------------------------------
F|--------------------------------------------------------------------------------------------------------
C|--------------------------------------------------------------------------------------------------------
G|--------------------------------------------------------------------------------------------------------
D|--------------------------------------------------------------------------------------------------------

D|--------0--1--5--0--------------1--0-----------1--3--5--8--5--3--------0--1--5--0--------------1--0-----
A|-----3-----------------3-----3--------1--3--------------------------3-----------------3-----3--------1--
F|--------------------------3--------------------------------------------------------------3--------------
C|--------------------------------------------------------------------------------------------------------
G|--------------------------------------------------------------------------------------------------------
D|--------------------------------------------------------------------------------------------------------

D|-----------0--1--5--0--------------0-----1--3--------0--1--5--0--
A|--3-----3-----------------3-----3-----------------3--------------
F|-----------------------------------------------------------------
C|-----------------------------------------------------------------
G|-----------------------------------------------------------------
D|-----------------------------------------------------------------

D|-----------0-----1--3-----1--3--5--8--5--3--------0--1--5--0--------------1--0--------------1-----
A|--3-----3--------------------------------------3-----------------3-----3-----------1--3-----------
F|--------------------------------------------------------------------3-----------------------------
C|--------------------------------------------------------------------------------------------------
G|--------------------------------------------------------------------------------------------------
D|--------------------------------------------------------------------------------------------------

D|--3--5--8--5--3--------0--1--5--0--------------1--0-----------5--5--3--0--3--5-----7--5--
A|--------------------3-----------------3-----3--------1--3--------------------------------
F|-----------------------------------------3-----------------------------------------------
C|-----------------------------------------------------------------------------------------
G|-----------------------------------------------------------------------------------------
D|-----------------------------------------------------------------------------------------

D|--4--4--5-----5--7--8--7-----5--0-----5--0-----------0-----5--5--3--0--3--5-----7--5--4--4--5--
A|--------------------------------------------3--1--3--------------------------------------------
F|-----------------------------------------------------------------------------------------------
C|-----------------------------------------------------------------------------------------------
G|-----------------------------------------------------------------------------------------------
D|-----------------------------------------------------------------------------------------------

D|-----5--7--8--7--5--0-----5--0-----------0-----------------0-----------------0--------------0--
A|--------------------------------3--1--3--------3-----1--3--------3-----0--3-----------1--2-----
F|-----------------------------------------------------------------------------------3-----------
C|-----------------------------------------------------------------------------------------------
G|-----------------------------------------------------------------------------------------------
D|-----------------------------------------------------------------------------------------------

D|--1--0--1--0-----
A|--------------3--
F|-----------------
C|-----------------
G|-----------------
D|-----------------

D|--
A|--
F|--
C|--
G|--
D|--

D|--
A|--
F|--
C|--
G|--
D|--

--





Song lyrics here
D|--
A|--
F|--
C|--
G|--
D|--

Paste any tab in acousterr's tab maker and we'll play it !!!
Now supports capo and sound effects for vibrato/pull-off/hammer/bends/mutes etc !!! Checkout help section



tabs and chords, guitar tabs, music transcription, music technology, deep learning, music information retrieval, transcribe into tabs & chords, chordify, music renditions, songsterr, reverbnation, tabulature, bollywood chords, ultimate guitar, yousician, guitar lessons, acoustic guitar, electric guitar, guitar tuner, 911 tabs