Guitar Tabs for High Hopes Panic! At The Disco

(/) Slide Up  (\) Slide Down  (h) Hammer On  (p) Pull Off  (b) Bend (r) Release (v) Vibrato (x) Muted

Tabs for Song : 

Song lyrics here
E|--10-10-10-10-10-
B|-----------------
G|-----------------
D|-----------------
A|-----------------
E|-----------------

E|--8--8--8--8--8--
B|-----------------
G|-----------------
D|-----------------
A|-----------------
E|-----------------

E|--5--5--5--5--5--
B|-----------------
G|-----------------
D|-----------------
A|-----------------
E|-----------------

E|--3--3--3--3--3--
B|-----------------
G|-----------------
D|-----------------
A|-----------------
E|-----------------

E|--10-10-10-10-10-
B|-----------------
G|-----------------
D|-----------------
A|-----------------
E|-----------------

E|--8--8--8--8--8--
B|-----------------
G|-----------------
D|-----------------
A|-----------------
E|-----------------

E|--5--5--5--5--5--
B|-----------------
G|-----------------
D|-----------------
A|-----------------
E|-----------------

E|--------------3--1--
B|--5--5--5--6--------
G|--------------------
D|--------------------
A|--------------------
E|--------------------

E|--5--5--5--3--1-----1-----5--5--5--5--8--8--10----------------3--
B|-----------------------3-----------------------8--8--8--6--6-----
G|-----------------------------------------------------------------
D|-----------------------------------------------------------------
A|-----------------------------------------------------------------
E|-----------------------------------------------------------------

E|--6--6--6--6--5--5--3--3--3--3--1--1-----
B|--------------------------------------3--
G|-----------------------------------------
D|-----------------------------------------
A|-----------------------------------------
E|-----------------------------------------

E|--1--3--1--5--5--3--1--------1--3--1--5--5--5--5--3--1--1-----
B|-----------------------------------------------------------3--
G|--------------------------------------------------------------
D|--------------------------------------------------------------
A|--------------------------------------------------------------
E|--------------------------------------------------------------

E|--5--5--5--5--8--8--10----------------3--
B|-----------------------8--8--8--6--6-----
G|-----------------------------------------
D|-----------------------------------------
A|-----------------------------------------
E|-----------------------------------------

E|--6--6--6--6--5-----
B|--------------------
G|--------------------
D|--------------------
A|--------------------
E|--------------------

E|--8--8--10----------------3--
B|-----------8--8--8--6--6-----
G|-----------------------------
D|-----------------------------
A|-----------------------------
E|-----------------------------

E|--6--6--6--6--5--5--3--3--3--3--1--1-----
B|--------------------------------------3--
G|-----------------------------------------
D|-----------------------------------------
A|-----------------------------------------
E|-----------------------------------------

E|--1--3--1--5--5--3--1--
B|-----------------------
G|-----------------------
D|-----------------------
A|-----------------------
E|-----------------------

E|--0--0-----0-----0-----
B|--------1-----1-----1--
G|-----------------------
D|-----------------------
A|-----------------------
E|-----------------------

E|--------1--1--1--1--1-----------------1--
B|--1--1-----------------1--1--1--1--1-----
G|-----------------------------------------
D|-----------------------------------------
A|-----------------------------------------
E|-----------------------------------------

E|--1--1--1--1--------
B|--------------1--1--
G|--------------------
D|--------------------
A|--------------------
E|--------------------

E|--------------------
B|--------------------
G|--3--3--3--3--2--2--
D|--------------------
A|--------------------
E|--------------------

E|-----------------------------------------------------------
B|-----------------------------------------------------------
G|--3--3--3--2--------2--2--2--2--0--0-----------0--0--------
D|--------------------------------------------3--------3--3--
A|-----------------------------------------------------------
E|-----------------------------------------------------------

E|--------1--1--------1--1--1--1--------
B|--1--1--------------------------1--1--
G|--------------------------------------
D|--------------------------------------
A|--------------------------------------
E|--------------------------------------

E|-----------1-----------------------1--------
B|--1--1--1-----1--1--------1--1--1-----1--1--
G|--------------------------------------------
D|--------------------------------------------
A|--------------------------------------------
E|--------------------------------------------

E|-----------------------------------------------------------
B|-----------------------------------------------------------
G|--3--3--3--3--2--2-----3--3--3--2--------2--2--2--2--0--0--
D|-----------------------------------------------------------
A|-----------------------------------------------------------
E|-----------------------------------------------------------

E|-----------------
B|-----------------
G|-----0--0--------
D|--3--------3--3--
A|-----------------
E|-----------------

E|--------------------------------------------0--0-----------------
B|--------1--------------------1--2-----------------3--------------
G|--2--3--------------------2-----------2--2-----------2--0--------
D|-----------------------------------------------------------3-----
A|-----------------------------------------------------------------
E|-----------------------------------------------------------------

E|--------------------------------0--0--------------------
B|--------1--------1--2-----2--2--------3-----------------
G|--2--3--------2--------------------------------2--0-----
D|-----------------------------------------------------3--
A|--------------------------------------------------------
E|--------------------------------------------------------

E|--1--3--1--5--5--5--3--1--1-----
B|-----------------------------3--
G|--------------------------------
D|--------------------------------
A|--------------------------------
E|--------------------------------

E|--5--5--5--5--8--8--10----------------3--
B|-----------------------8--8--8--6--6-----
G|-----------------------------------------
D|-----------------------------------------
A|-----------------------------------------
E|-----------------------------------------

E|--6--6--6--6--5--5--3--3--3--3--1--1--------------1--3--1--5--5--3--1--
B|--------------------------------------3--------------------------------
G|-----------------------------------------------------------------------
D|-----------------------------------------------------------------------
A|-----------------------------------------------------------------------
E|-----------------------------------------------------------------------

E|--1--3--1-----5--5--5--3--1--1--------------5--5--5--5--8-----8--10----------------3--
B|--------------------------------3-----------------------------------8--8--8--6--6-----
G|--------------------------------------------------------------------------------------
D|--------------------------------------------------------------------------------------
A|--------------------------------------------------------------------------------------
E|--------------------------------------------------------------------------------------

E|--6--6--6--6--5--5--3--3--3--3--1--1-----
B|--------------------------------------3--
G|-----------------------------------------
D|-----------------------------------------
A|-----------------------------------------
E|-----------------------------------------

E|--1--3--1--5--5--3--1--
B|-----------------------
G|-----------------------
D|-----------------------
A|-----------------------
E|-----------------------

E|--5--5--3--1-----------------1--1--1--1--1--------------------------1--------1--1--1--1--------
B|-----------------------1--1-----------------1--1-----------1--1--1-----------------------1--1--
G|-----------------------------------------------------------------------------------------------
D|-----------------------------------------------------------------------------------------------
A|-----------------------------------------------------------------------------------------------
E|-----------------------------------------------------------------------------------------------

E|--------------------------------------------------------------------------------------
B|--------------------------------------------------------------------------------------
G|--3--3--3--3--2--2--------3--3--3--2-----2--2--2--2--0--0-----------------0--0--------
D|-----------------------------------------------------------------------3--------3--3--
A|--------------------------------------------------------------------------------------
E|--------------------------------------------------------------------------------------

E|-----------------
B|-----------------
G|-----3--3--3--2--
D|--3--------------
A|-----------------
E|-----------------

E|-----------------
B|-----------------
G|-----3--3--3--2--
D|--3--------------
A|-----------------
E|-----------------

E|-----------------------------------------------------------------------------------
B|--------------------------------------------------------------1--------------------
G|--2-----2--0-----------------------------3--3--3--2--------------3--2--2-----------
D|--------------3-----2--3--2--0--------3--------------------3-----------------------
A|-----------------------------------------------------------------------------------
E|-----------------------------------------------------------------------------------

E|--------------------------------------------------------0--0--------------------
B|-----------------------------1--------1--2--------------------3--------2--0-----
G|--2--0-----------------2--3--------2--------------2--2--------------------------
D|--------3--2-----------------------------------------------------------------3--
A|--------------------------------------------------------------------------------
E|--------------------------------------------------------------------------------

E|--1--3--1--5--5--5--3--1--1-----
B|-----------------------------3--
G|--------------------------------
D|--------------------------------
A|--------------------------------
E|--------------------------------

E|--5--5--5--5----8--8--10----------------3--------
B|--------------------------8--8--8--6--6-----------
G|--------------------------------------------------
D|--------------------------------------------------
A|--------------------------------------------------
E|--------------------------------------------------

E|--6--6--6--6--6--5--5--3--3--3--3--1--1-----
B|-----------------------------------------3--
G|--------------------------------------------
D|--------------------------------------------
A|--------------------------------------------
E|--------------------------------------------

E|--1--3--1-----5--5--3--1--
B|--------------------------
G|--------------------------
D|--------------------------
A|--------------------------
E|--------------------------

E|--1--3--1-----5--5--5--3--1--1-----
B|--------------------------------3--
G|-----------------------------------
D|-----------------------------------
A|-----------------------------------
E|-----------------------------------

E|--5--5--5--5--8--8--10----------------3--
B|-----------------------8--8--8--6--6-----
G|-----------------------------------------
D|-----------------------------------------
A|-----------------------------------------
E|-----------------------------------------

E|--6--6--6--6--5--5--3--3--3--3--1--1-----
B|--------------------------------------3--
G|-----------------------------------------
D|-----------------------------------------
A|-----------------------------------------
E|-----------------------------------------

E|--1--3--1--5--5--3--1-----5--3--1--
B|-----------------------------------
G|-----------------------------------
D|-----------------------------------
A|-----------------------------------
E|-----------------------------------

E|--------1--1--1--1--1-----------------------1--
B|--1--1--------------------1--1-----1--1--1-----
G|-----------------------------------------------
D|-----------------------------------------------
A|-----------------------------------------------
E|-----------------------------------------------

E|--1--1--1--1--------
B|--------------1--1--
G|--------------------
D|--------------------
A|--------------------
E|--------------------

E|--------------------
B|--------------------
G|--3--3--3--3--2--2--
D|--------------------
A|--------------------
E|--------------------

E|-----------------------------------------
B|-----------------------------------------
G|--3--3--3--2-----------2--2--2--2--0--0--
D|-----------------------------------------
A|-----------------------------------------
E|-----------------------------------------

E|-----------------
B|-----------------
G|-----0--0--------
D|--3--------3--3--
A|-----------------
E|-----------------

E|-----------------
B|-----------------
G|-----3--3--3--2--
D|--3--------------
A|-----------------
E|-----------------

E|-----------------
B|-----------------
G|-----3--3--3--2--
D|--3--------------
A|-----------------
E|-----------------

E|-----------------------------------
B|-----------------------------------
G|--2--0-----------------------------
D|--------3-----2-----------3--2--0--
A|-----------------------------------
E|-----------------------------------

E|-----------------
B|-----------------
G|-----3--3--3--2--
D|--3--------------
A|-----------------
E|-----------------

E|-----------------
B|-----1-----------
G|--------3--2--2--
D|--3--------------
A|-----------------
E|-----------------

E|--------------
B|--------------
G|--2--0--------
D|--------3--2--
A|--------------
E|--------------

E|--------------------
B|--------1-----1--2--
G|--2--3-----2--------
D|--------------------
A|--------------------
E|--------------------

E|--------0--0--------------------
B|--------------3-----------------
G|--2--2-----------2--0-----------
D|-----------------------------3--
A|--------------------------------
E|--------------------------------

E|--------------------------
B|--------1-----------1--2--
G|--2--3-----------2--------
D|--------------------------
A|--------------------------
E|--------------------------

E|--------0-----0-----------------
B|-----------------3--------------
G|--2--2-----------------2--0-----
D|-----------------------------3--
A|--------------------------------
E|--------------------------------

E|--------1--1-----1--1--1--1--1-----0--0--0--0--1--0-----
B|-----------------------------------------------------3--
G|--------------------------------------------------------
D|-----3--------------------------------------------------
A|--------------------------------------------------------
E|--------------------------------------------------------

E|-----------
B|--3--3--2--
G|-----------
D|-----------
A|-----------
E|-----------

E|-----------1--1--1--1--1-----0--0--0--0--1--------0--------
B|--1--1--1-----------------------------------------------3--
G|-----------------------------------------------------------
D|-----------------------------------------------------------
A|-----------------------------------------------------------
E|-----------------------------------------------------------

E|-----------
B|--3--3--2--
G|-----------
D|-----------
A|-----------
E|-----------

E|--1--3--1-----5--5--5--3--1--1-----
B|--------------------------------3--
G|-----------------------------------
D|-----------------------------------
A|-----------------------------------
E|-----------------------------------

E|--5--5--5--5--8--8--10----------------3--
B|-----------------------8--8--8--6--6-----
G|-----------------------------------------
D|-----------------------------------------
A|-----------------------------------------
E|-----------------------------------------

E|--6--6--6--6--5--5--3--3--3--3--1--1-----
B|--------------------------------------3--
G|-----------------------------------------
D|-----------------------------------------
A|-----------------------------------------
E|-----------------------------------------

E|--1--3--1--5--5--3--1-----5--5-----3--1--5--5--5--3--1--1-----
B|--------------------------------6--------------------------3--
G|--------------------------------------------------------------
D|--------------------------------------------------------------
A|--------------------------------------------------------------
E|--------------------------------------------------------------

E|--5--5--5--5--8--8--10----------------3--
B|-----------------------8--8--8--6--6-----
G|-----------------------------------------
D|-----------------------------------------
A|-----------------------------------------
E|-----------------------------------------

E|--6--6--6--6--5--5--3--3--3--3--1--1-----
B|--------------------------------------3--
G|-----------------------------------------
D|-----------------------------------------
A|-----------------------------------------
E|-----------------------------------------

E|--1--3--1-----5--5--3--1--
B|--------------------------
G|--------------------------
D|--------------------------
A|--------------------------
E|--------------------------

E|--5--5-----3--1-----5--5--5--3--1--1-----
B|--------6-----------------------------3--
G|-----------------------------------------
D|-----------------------------------------
A|-----------------------------------------
E|-----------------------------------------

E|--5--5--5--5--8--8--10----------------3--
B|-----------------------8--8--8--6--6-----
G|-----------------------------------------
D|-----------------------------------------
A|-----------------------------------------
E|-----------------------------------------

E|--6--6--6--6--5--5--3--3--3--1--1-----
B|-----------------------------------3--
G|--------------------------------------
D|--------------------------------------
A|--------------------------------------
E|--------------------------------------

E|--1--3--1--5--5--3--1--
B|-----------------------
G|-----------------------
D|-----------------------
A|-----------------------
E|-----------------------

E|--1--3--1-----5--5--5--3--1--1-----
B|--------------------------------3--
G|-----------------------------------
D|-----------------------------------
A|-----------------------------------
E|-----------------------------------

E|--5--5--5--5--8--8--10----------------3--
B|-----------------------8--8--8--6--6-----
G|-----------------------------------------
D|-----------------------------------------
A|-----------------------------------------
E|-----------------------------------------

E|--6--6--6--6--5--5--3--3--3--1-----
B|--------------------------------3--
G|-----------------------------------
D|-----------------------------------
A|-----------------------------------
E|-----------------------------------

E|--1--3--1--5--5--3--1-----5--5--3--1--
B|--------------------------------------
G|--------------------------------------
D|--------------------------------------
A|--------------------------------------
E|---------------------------------------

E|----
B|-----
G|-----
D|-----
A|-----
E|-----

Song lyrics here
E|--
B|--
G|--
D|--
A|--
E|--

Paste any tab in acousterr's tab maker and we'll play it !!!
Now supports capo and sound effects for vibrato/pull-off/hammer/bends/mutes etc !!! Checkout help section
tabs and chords, guitar tabs, music transcription, music technology, deep learning, music information retrieval, transcribe into tabs & chords, chordify, music renditions, songsterr, reverbnation, tabulature, bollywood chords, ultimate guitar, yousician, guitar lessons, acoustic guitar, electric guitar, guitar tuner, 911 tabs