Guitar Tabs for Hey There Delilah Tabs

Tabs for Song : Hey There Delilah

Intro
E|--------------------------------------------------------------------------------------------------
B|-----1-----1-----1-----1-----0-----0-----0-----0-----1-----1-----1-----1-----0-----0-----0-----0--
G|-----0-----0-----0-----0-----0-----0-----0-----0-----0-----0-----0-----0-----0-----0-----0-----0--
D|--------------------------------------------------------------------------------------------------
A|--3-----3-----3-----3-----------------------------3-----3-----3-----3-----------------------------
E|--------------------------0-----0-----0-----0-----------------------------0-----0-----0-----0-----

Verse
E|----------------------------------------------------------------------------------------------------
B|-----1-----1-----1-----1-----0-----0-----0-----0-------1-----1-----1-----1-----0-----0-----0-----0--
G|-----0-----0-----0-----0-----0-----0-----0-----0-------0-----0-----0-----0-----0-----0-----0-----0--
D|----------------------------------------------------------------------------------------------------
A|--3-----3-----3-----3-------------------------------3-----3-----3-----3-----------------------------
E|--------------------------0-----0-----0-----0-------------------------------0-----0-----0-----0-----

E|----------------------------------------------------------------------------------------------------
B|-----1-----1-----1-----------1-----1-----0-----0-------1-----1-----1-----1-----0-----0-----1-----1--
G|-----2-----2-----2-----------2-----2-----0-----0-------2-----2-----2-----2-----0-----0-----0-----0--
D|----------------------------------------------------------------------------------------------------
A|--0-----0-----0-------------------------------------0-----0-----0-----0-----------------------------
E|--------------------3-----1-----1-----3-----3-------------------------------3-----3-----3-----3-----

E|----------------------------------------------------------------------------------------------------
B|-----1-----1-----1-----1-----0-----0-----0-----0-------1-----1-----1-----1-----0-----0-----0-----0--
G|-----0-----0-----0-----0-----0-----0-----0-----0-------0-----0-----0-----0-----0-----0-----0-----0--
D|----------------------------------------------------------------------------------------------------
A|--3-----3-----3-----3-------------------------------3-----3-----3-----3-----------------------------
E|--------------------------0-----0-----0-----0-------------------------------0-----0-----0-----0-----

E|----------------------------------------------------------------------------------------------------
B|-----1-----1-----1-----------1-----1-----0-----0-------1-----1-----1-----1-----0-----0-----1-----1--
G|-----2-----2-----2-----------2-----2-----0-----0-------2-----2-----2-----2-----0-----0-----0-----0--
D|----------------------------------------------------------------------------------------------------
A|--0-----0-----0-------------------------------------0-----0-----0-----0-----------------------------
E|--------------------3-----1-----1-----3-----3-------------------------------3-----3-----3-----3-----

Chorus
E|--------------------------------------------------------------------------------------------------
B|-----1-----1-----1-----1-----1-----1-----1-----1-------1-----1-----1-----1-----1-----1-----1-----1
G|-----0-----0-----0-----0-----2-----2-----2-----2-------0-----0-----0-----0-----2-----2-----2-----2
D|--------------------------------------------------------------------------------------------------
A|--3-----3-----3-----------0-----0-----0-----2-------3-----3-----3-----------0-----0-----0-----2---
E|--------------------3-------------------------------------------------3---------------------------

E|--------------------------------------------------------------------------------------------------
B|-----1-----1-----1-----1-----1-----1-----1-----1-------1-----1-----1-----1-----1-----1-----1-----1
G|-----0-----0-----0-----0-----2-----2-----2-----2-------0-----0-----0-----0-----2-----2-----2-----2
D|--------------------------------------------------------------------------------------------------
A|--3-----3-----3-----------0-----0-----0-----2-------3-----3-----3-----------0-----0-----0-----2---
E|--------------------3-------------------------------------------------3---------------------------

Interlude
E|--------------------------
B|-----1-----1-----1-----1--
G|-----0-----0-----0-----0--
D|--------------------------
A|--3-----3-----3-----------
E|--------------------3-----

Verse

Chorus

Bridge
E|-----------------------------------------------------------------------------------------------
B|--------1-----1-----1-----1-----0-----0-----0-----0-----1-----1-----1--------1-----1-----1-----
G|--------2-----2-----2-----2-----0-----0-----0-----0-----0-----0-----0--------2-----2-----2-----
D|-----------------------------------------------------------------------------------------------
A|-----------------------------------------------------3-----3-----3--------0-----0-----0--------
E|--3--1-----1-----1-----1-----3-----3-----3-----3-----------------------3--------------------3--
 
E|--------------------------------------------------------------------------------------------------
B|-----1-----1-----1-----1-----0-----0-----0-----0--------1-----1-----1-----------1-----1-----1-----
G|-----2-----2-----2-----2-----0-----0-----0-----0--------0-----0-----0-----------2-----2-----2-----
D|--------------------------------------------------------------------------------------------------
A|--------------------------------------------------3--------3-----3-----2-----0-----0-----0--------
E|--1-----1-----1-----1-----3-----3-----3-----3--------------------------------------------------3--

E|----------------------------------------------------------------------------------------------------
B|-----1-----1-----1-----1-------0-----0-----0-----0-----1-----1-----1-----1-----1-----1-----1-----1--
G|-----2-----2-----2-----2-------0-----0-----0-----0-----2-----2-----2-----2-----2-----2-----2-----2--
D|----------------------------------------------------------------------------------------------------
A|----------------------------------------------------0-----0-----0-----0-----0-----0-----0-----0-----
E|--1-----1-----1-----1-------3-----3-----3-----3-----------------------------------------------------

E|-------------------------------------------------
B|-----0-----0-----0-----0----3-----3-----3-----3--
G|-----0-----0-----0-----0----0-----0-----0-----0--
D|-------------------------------------------------
A|-------------------------------------------------
E|--3-----3-----3-----3----3-----3-----3-----3-----

Verse

Verse Interlude 
E|--------------------------------------------------------------------------------------------
B|-----1-----1-----1--------1-----1-----0-----0-----1-----1-----1--------1-----1-----0-----0--
G|-----2-----2-----2--------2-----2-----0-----0-----2-----2-----2--------2-----2-----0-----0--
D|--------------------------------------------------------------------------------------------
A|--0-----0-----0--------------------------------0-----0-----0--------------------------------
E|--------------------3--1-----1-----3-----3-----------------------3--1-----1-----3-----3-----

E|--------------------------------------------------------------------------
B|-----1-----1-----1-----1-----0-----0-----0-----0-----3-----3-----3-----3--
G|-----2-----2-----2-----2-----0-----0-----0-----0-----0-----0-----0-----0--
D|--------------------------------------------------------------------------
A|--0-----0-----0-----0-----------------------------------------------------
E|--------------------------3-----3-----3-----3-----3-----3-----3-----3-----

Chorus
End

Add more lines by placing cursor below and adding notes
tabs and chords, guitar tabs, music transcription, music technology, deep learning, music information retrieval, transcribe into tabs & chords, chordify, music renditions, songsterr, reverbnation, tabulature, bollywood chords, ultimate guitar, yousician, guitar lessons, acoustic guitar, electric guitar, guitar tuner, 911 tabs