Ukulele Tabs for Hey There Delilah

(/) Slide Up  (\) Slide Down  (h) Hammer On  (p) Pull Off  (b) Bend (r) Release (v) Vibrato (x) Muted

Tabs for Song : 

Hey there Delilah,whats it like in New York city? I'm a thousand miles away, but girl tonight you look so pretty, yes you do
A|--0--0--0--0-----------0--0--0--2--0-----------0--0--0--0--0-----------0--0--0--2--0--------------
E|--------------3--2--3-----------------3--2--3-----------------3--2--3-----------------3--2--0--2--
C|--------------------------------------------------------------------------------------------------
G|--------------------------------------------------------------------------------------------------
Time Square Can't shine as bright as you, I swear it's true
A|-----------------------------------------------------
E|--3--3--3--2--0-----0--2--------2--2-----0-----------
C|-----------------2--------------------2--------------
G|-----------------------------------------------------
Hey there Delilah, don't you worry bout the distance, I'm right there if you get lonely,give this song another listen
A|--0--0--0--0-----------0--0--0--2--0-----------0--0--0--0--0-----------0--0--0--2--0-----
E|--------------3--2--3-----------------3--2--3-----------------3--2--3-----------------3--
C|-----------------------------------------------------------------------------------------
G|-----------------------------------------------------------------------------------------
Close your eyes, listen to my voice it's my disguise, I'm by your side
A|--------------------------------------------------------------------
E|--2--0--2--------3--3--3--3--2--0-----0--2--------2--2-----0--------
C|-----------------------------------2--------------------2-----------
G|--------------------------------------------------------------------
OOoooh, it's what you do to me, Oh, it's what you do to me
A|---3/5-----5---5/9--7--5--4---5\4--2-----0-----0--0--------------------
E|-----------------------------------------------------3--2--0--2--------
C|-----------------------------------------------------------------------
G|-----------------------------------------------------------------------
OOoooh, it's what you do to me, Oh, it's what you do to me, what you do to me
A|---3/5-----5---5/9--7--5--4---5\4--2-----0-----0--0-----------------0--------------
E|-----------------------------------------------------3--2--0--2--------3--2--0--2--
C|-----------------------------------------------------------------------------------
G|-----------------------------------------------------------------------------------
Hey there Delilah, I know times are getting hard, but just believe me girl some day I'll pay the bills with this guitar
A|--0--0--0--0-----------0--0--0--2--0-----------0--0--0--0--0-----------0--0--0--2--0--
E|--------------3--2--3-----------------3--2--3-----------------3--2--3-----------------
C|--------------------------------------------------------------------------------------
G|--------------------------------------------------------------------------------------
We'll have it good, We'll have the life we knew we would, my word is good
A|-----------------------------------------------------------------
E|--3--2--0--2-----------3--3--3--2--0-----0--2--------2--2-----0--
C|--------------------------------------2--------------------2-----
G|-----------------------------------------------------------------
Hey there Delilah, I've got so much left to say, If every simple song I wrote to you, would take your breath away
A|--0--0--0--0-----------0--0--0--2--0-----------0--0--0--0--0-----------0--0--0--2--0--
E|--------------3--2--3-----------------3--2--3-----------------3--2--3-----------------
C|--------------------------------------------------------------------------------------
G|--------------------------------------------------------------------------------------
I'd write it all, Even more in love with me you'd fall, we'd have it all
A|-----------------------------------------------------------------
E|--3--2--0--2-----------3--3--3--3--2--0-----0--2-----2--2-----0--
C|-----------------------------------------2-----------------2-----
G|-----------------------------------------------------------------
OOOooh, it's what you do to meeee, Oh, it's what you do to me
A|---3/5-----5---5/9--7--5--4---5\4--2--------0-----0--0-----------------------
E|--------------------------------------------------------3--2--0--2-----------
C|-----------------------------------------------------------------------------
G|-----------------------------------------------------------------------------
Oooooh, it's what you do to meeee, Oh, it's what you do to me, what you do to me
A|---3/5-----5---5/9--7--5--4---5\4--2--------0-----0--0-----------------0--------------
E|--------------------------------------------------------3--2--0--2--------3--2--0--2--
C|--------------------------------------------------------------------------------------
G|--------------------------------------------------------------------------------------
A thousand miles seems pretty far but they've got plains and trains and cars, I'd walk to you if I had no other way
A|--------------2--2--2--2--0--0--0--0--4--4--4---4/5--4--2--0--0--0--------------
E|--3--3--3--3--------------------------------------------------------3--2--3--2--
C|--------------------------------------------------------------------------------
G|--------------------------------------------------------------------------------
Our friends would all make fun of us, and we'll just laugh along because, we know that none of them have felt this way
A|-----------------2--2--2--2--0--0--0--0--4--4--4---4/5--4--2--0--0--------------
E|--3--3--3--3--3-----------------------------------------------------3--2--3--2--
C|--------------------------------------------------------------------------------
G|--------------------------------------------------------------------------------
Delilah I can promise you, that by the time that we get through, the world will never ever be the same, and you're to blame
A|-----------------2--2--2--2--0--0--0--0--4--4--4---4/9--7--5--4--5--4--2--4--5-----0--5--5---5\4-----2--0--
E|--3--3--3--3--3--------------------------------------------------------------------------------------------
C|-----------------------------------------------------------------------------------------------------------
G|-----------------------------------------------------------------------------------------------------------
Hey there Delilah you be good, and don't you miss me, two more years and you'll be done with school and I'll be
A|--0--0--0--0-----------0--0--0--2--0-----------0--0--0--0--0-----------0--0--
E|--------------3--2--3-----------------3--2--3-----------------3--2--3--------
C|-----------------------------------------------------------------------------
G|-----------------------------------------------------------------------------
making history like I do, you'll know it's all because of you, we can do whatever we want to
A|--0--2--0--------------------------------------------------------------------0--0--0--2--------------
E|-----------3--2--0--2--------------3--3--3--2--0-----0--2--------3--3--3--3--------------2-----------
C|--------------------------------------------------2--------------------------------------------------
G|-----------------------------------------------------------------------------------------------------
Hey there Delilah, here's to you, this one's for you--- OOoh it's what you do to me
A|------------------------------------------------------3/5-----5---5/9--7--5--4---5\4--2--
E|--3--3--3--2--0-----0--2--------2--2-----0-----------------------------------------------
C|-----------------2--------------------2--------------------------------------------------
G|-----------------------------------------------------------------------------------------
Oh, it's what you do to me--- Oooh, it's what you do to me, ooh it's what you do to me, what you do to me
A|--0--0--0------------------------3/5--5---5/9--7--5--4---5\4--2-----0-----0--0-----------------0--------------
E|-----------3--2--0--2-----------------------------------------------------------3--2--0--2--------3--2--0--2--
C|--------------------------------------------------------------------------------------------------------------
G|--------------------------------------------------------------------------------------------------------------

A|--0--2--------4--5-----9--7--5--4--2--------4--0--------0-----------------0--------------------------------
E|-----------------------------------------------------------3--2--0--2--------3--2--0--2-----------2-----2--
C|--------------------------------------------------------------------------------------------1--2-----2--2--
G|-----------------------------------------------------------------------------------------------------------


tabs and chords, guitar tabs, music contests, music covers, songsterr, reverbnation, renditions, tabulature, bollywood chords, ultimate guitar, yousician, guitar lessons, torrins, fender, gibson, acoustic guitar, electric guitar, youtube covers, gootar, guitar tuner, A-Z tabs, 911 tabs