Guitar Tabs for Hey Little Girl

Tabs for Song : Capo at 3rd fret

Intro

3x        E                                    C                D                       E
E|--0--0--0--0--0--0--0-----------------0--0--0--0--0--0--2--2--2--2--2--0--0--0--0--0--0--0--0--0--0--0--0--0--
B|--0--0--0--0--0--0--0-----------------1--1--1--1--1--1--3--3--3--3--3--3--0--0--0--0--0--0--0--0--0--0--0--0--
G|--1--1--1--1--1--1--1-----------------0--0--0--0--0--0--2--2--2--2--2--2--1--1--1--1--1--1--1--1--1--1--1--1--
D|--2--2--2--2--2--2--2-----------------2--2--2--2--2--2--0--0--0--0--0--0--2--2--2--2--2--2--2--2--2--2--2--2--
A|--2--2--2--2--2--2--2-----2--3--2--0--3--3--3--3--3--3--0--0--0--0--0--0--2--2--2--2--2--2--2--2--2--2--2--2--
E|--0--0--0--0--0--0--0--3--------------0--0--0--0--0--0--0--0--0--0--0--0--0--0--0--0--0--0--0--0--0--0--0--0--

1y        E                                   C                 Am
E|--0--0--0--0--0--0--0-----------------0--0--0--0--0--0--0--0--0--0--0--0-----
B|--0--0--0--0--0--0--0-----------------1--1--1--1--1--1--1--1--1--1--1--0-----
G|--1--1--1--1--1--1--1-----------------0--0--0--0--0--0--2--2--2--2--2--2-----
D|--2--2--2--2--2--2--2-----------------2--2--2--2--2--2--2--2--2--2--2--2-----
A|--2--2--2--2--2--2--2-----2--3--2--0--3--3--3--3--3--3--0--0--0--0--0--0-----
E|--0--0--0--0--0--0--0--3--------------0--0--0--0--0--0--0--0--0--0--0--0-----


Verse
          E                                   C                 D                    E
E|--0--0--0--0--0--0--0-----------------0--0--0--0--0--0--2--2--2--2--2--0--0--0--0--0--0--0--0--0--0--0--0--0--
B|--0--0--0--0--0--0--0-----------------1--1--1--1--1--1--3--3--3--3--3--3--0--0--0--0--0--0--0--0--0--0--0--0--
G|--1--1--1--1--1--1--1-----------------0--0--0--0--0--0--2--2--2--2--2--2--1--1--1--1--1--1--1--1--1--1--1--1--
D|--2--2--2--2--2--2--2-----------------2--2--2--2--2--2--0--0--0--0--0--0--2--2--2--2--2--2--2--2--2--2--2--2--
A|--2--2--2--2--2--2--2-----2--3--2--0--3--3--3--3--3--3--0--0--0--0--0--0--2--2--2--2--2--2--2--2--2--2--2--2--
E|--0--0--0--0--0--0--0--3--------------0--0--0--0--0--0--0--0--0--0--0--0--0--0--0--0--0--0--0--0--0--0--0--0--


Chorus

          E                                    C              D                       
E|--0--0--0--0--0--0--0--0--0--0--0--0--0--0--0--0--0--0--2--2--2--2--2--0--
B|--0--0--0--0--0--0--0--0--0--0--0--0--1--1--1--1--1--1--3--3--3--3--3--3--
G|--1--1--1--1--1--1--1--1--1--1--1--1--0--0--0--0--0--0--2--2--2--2--2--2--
D|--2--2--2--2--2--2--2--2--2--2--2--2--2--2--2--2--2--2--0--0--0--0--0--0--
A|--2--2--2--2--2--2--2--2--2--2--2--2--3--3--3--3--3--3--0--0--0--0--0--0--
E|--0--0--0--0--0--0--0--0--0--0--0--0--0--0--0--0--0--0--0--0--0--0--0--0--


Outro

2x        E                                    C                D                       E
E|--0--0--0--0--0--0--0-----------------0--0--0--0--0--0--2--2--2--2--2--0--0--0--0--0--0--0--0--0--0--0--0--0--
B|--0--0--0--0--0--0--0-----------------1--1--1--1--1--1--3--3--3--3--3--3--0--0--0--0--0--0--0--0--0--0--0--0--
G|--1--1--1--1--1--1--1-----------------0--0--0--0--0--0--2--2--2--2--2--2--1--1--1--1--1--1--1--1--1--1--1--1--
D|--2--2--2--2--2--2--2-----------------2--2--2--2--2--2--0--0--0--0--0--0--2--2--2--2--2--2--2--2--2--2--2--2--
A|--2--2--2--2--2--2--2-----2--3--2--0--3--3--3--3--3--3--0--0--0--0--0--0--2--2--2--2--2--2--2--2--2--2--2--2--
E|--0--0--0--0--0--0--0--3--------------0--0--0--0--0--0--0--0--0--0--0--0--0--0--0--0--0--0--0--0--0--0--0--0--

2x /----------------------------------/
          C                 D              E
E|--0--0--0--0--0--0--2--2--2--2--2--2-----0--
B|--1--1--1--1--1--1--3--3--3--3--3--3-----0--
G|--0--0--0--0--0--0--2--2--2--2--2--2-----2--
D|--2--2--2--2--2--2--0--0--0--0--0--0-----3--
A|--3--3--3--3--3--3--0--0--0--0--0--0-----3--
E|--0--0--0--0--0--0--0--0--0--0--0--0-----0--

Hey Little Girl

Hey little girl, won't you keep your head up
And if you're sad do it for me
'Cause hey little girl, I'd rather like to see you smile
And if you smile the sun will shine
Hey little girl, will you be my star tonight
And fill me up with your light
'Cause hey little girl, don't be too hard on yourself
There's no need to be concerned

Hey little boy, won't you keep your head up
And if you're sad do it for me
'Cause hey little boy, you're some else's joy
You're someone's shelter when it storms
Hey little boy, don't feel that you won't belong
You're heart is some else's home
'Cause hey little boy, don't be too hard on yourself
There's no need to run and hide

You don't have to pretend to be someone else
If you cannot bear the weight of their expectations
Seems hard to be strong, keep up along
Sometimes you will lose but get through

You don't have to pretend to be someone else
If you cannot bear the weight of their expectations
Seems hard to be strong, keep up along
Sometimes you will lose but get through it all



Music: Markus Richter
Lyrics: Markus Richter
Arrangement: Leonie Wahl & Markus Richter
© Leonie Wahl & Markus Richter, 2018
tabs and chords, guitar tabs, music transcription, music technology, deep learning, music information retrieval, transcribe into tabs & chords, chordify, music renditions, songsterr, reverbnation, tabulature, bollywood chords, ultimate guitar, yousician, guitar lessons, acoustic guitar, electric guitar, guitar tuner, 911 tabs