Guitar Tabs for Hey Kids

(/) Slide Up  (\) Slide Down  (h) Hammer On  (p) Pull Off  (b) Bend (r) Release (v) Vibrato (x) Muted

Tabs & Chords
BPM : 133.0
Check Track 2 for Chord Positions 

    G#                                                          C        Cm                   
E|--------------------------------------------------------------------------------3-----------
B|-----4--7--7--7--6--6-----4--7--7--7--6--6-----4--7--7--7--6--6--------------4-----4--7--4--
G|--5--------------------5--------------------5--------------------5-----0--5-----------------
D|--------------------------------------------------------------------------------------------
A|--------------------------------------------------------------------------------------------
E|--------------------------------------------------------------------------------------------

             G#                            A#             Cm                            G#    
E|-----------------------------3--------------------6-----------3-----------------------------
B|--6--4-----------------4--4-----4--7--4--6--4--6-----------4-----4--7--4--6--4--------------
G|--------5--5-----0--5--------------------------------0--5-----------------------5-----5--3--
D|--------------3-----------------------------------------------------------------------------
A|--------------------------------------------------------------------------------------------
E|--------------------------------------------------------------------------------------------

                               Cm                Fm                G#                A#       
E|--------------------------------------------------------------------------3-----------------
B|--------0-----4-----------------------4--4--7--4--6--4-----------------4-----7--4--6--4--6--
G|--0--3-----5-----5--3--0-----0--5--5--------------------5--5-----0--5-----------------------
D|--------------------------3-----------------------------------3-----------------------------
A|--------------------------------------------------------------------------------------------
E|--------------------------------------------------------------------------------------------

       Cm                            G#                            A#    Cm                   
E|--------------------------------------------------------------------------------------3-----
B|--------------4--4--7--4--6--4--------------------0-----4--------3--4--------------------6--
G|-----0--5--5--------------------5--3-----5--0--3-----5-----5--5--------5--5-----3--5--------
D|--------------------------------------3-----------------------------------------------------
A|--------------------------------------------------------------------------------------------
E|--------------------------------------------------------------------------------------------

                                     G#                
E|--3--------------------------------------------------
B|-----4-----------3--4--------------------0-----------
G|-----------5--5--------5--5-----5--5--5-----0--0-----
D|--------------------------------------------------3--
A|-----------------------------------------------------
E|-----------------------------------------------------

Guitar Tabs for Hey Kids






    G#                                                          C        Cm                   
E|--4-----------------------------------------------------------0--------3--------------------
B|--4-----------------------------------------------------------1--------4--------------------
G|--5-----------------------------------------------------------0--------5--------------------
D|--6-----------------------------------------------------------2--------5--------------------
A|--6-----------------------------------------------------------3--------3--------------------
E|--4-----------------------------------------------------------------------------------------

             G#                            A#             Cm                            G#    
E|-----------4-----------------------------1--------------3-----------------------------4-----
B|-----------4-----------------------------3--------------4-----------------------------4-----
G|-----------5-----------------------------3--------------5-----------------------------5-----
D|-----------6-----------------------------3--------------5-----------------------------6-----
A|-----------6-----------------------------1--------------3-----------------------------6-----
E|-----------4--------------------------------------------------------------------------4-----

                               Cm                Fm                G#                A#       
E|-----------------------------3-----------------1-----------------4-----------------1--------
B|-----------------------------4-----------------1-----------------4-----------------3--------
G|-----------------------------5-----------------1-----------------5-----------------3--------
D|-----------------------------5-----------------3-----------------6-----------------3--------
A|-----------------------------3-----------------3-----------------6-----------------1--------
E|-----------------------------------------------1-----------------4--------------------------

       Cm                            G#                            A#    Cm                   
E|-----3-----------------------------4-----------------------------1-----3--------------------
B|-----4-----------------------------4-----------------------------3-----4--------------------
G|-----5-----------------------------5-----------------------------3-----5--------------------
D|-----5-----------------------------6-----------------------------3-----5--------------------
A|-----3-----------------------------6-----------------------------1-----3--------------------
E|-----------------------------------4--------------------------------------------------------

                                     G#                
E|-----------------------------------4-----------------
B|-----------------------------------4-----------------
G|-----------------------------------5-----------------
D|-----------------------------------6-----------------
A|-----------------------------------6-----------------
E|-----------------------------------4-----------------

tabs and chords, guitar tabs, music transcription, music technology, deep learning, music information retrieval, transcribe into tabs & chords, chordify, music renditions, songsterr, reverbnation, tabulature, bollywood chords, ultimate guitar, yousician, guitar lessons, acoustic guitar, electric guitar, guitar tuner, 911 tabs