Guitar Tabs for Hey Jude - Beatles Tabs

Tabs for Song : Hey Jude

hey jude dont make it bad
e|--------------------------
B|--------------------------
G|--5-----------5--7--------
D|-----7-----7--------5-----
A|--------------------------
E|--------------------------

take a sad song and make it better                                                                                 
E|-----------------------------------------
B|-----------6-----6--5--------------------
G|-----------------------5--7--5-----------
D|--5--7--8-----------------------8--7-----
A|-----------------------------------------
E|-----------------------------------------

remember to let her into your heart
E|--------------------------------------
B|-----------------8--6--5--6-----------
G|--5--7--7-----7--------------7--5-----
D|--------------------------------------
A|--------------------------------------
E|--------------------------------------


then you can start to make it better
E|-----------------------------------
B|-----------------------------------
G|-----------7--5--5-----------------
D|-----5--7-----------8--7-----------
A|--8-----------------------7--8-----
E|-----------------------------------


hey jude dont be afraid
e|--------------------------
B|--------------------------
G|--5-----------5--7--------
D|-----7-----7--------5-----
A|--------------------------
E|--------------------------

you were made to go out and get her  
E|-----------------------------------------
B|-----------6-----6--5--------------------
G|-----------------------5--7--5-----------
D|--5--7--8-----------------------8--7-----
A|-----------------------------------------
E|-----------------------------------------

the minute you let her under your skin
E|--------------------------------------
B|-----------------8--6--5--6-----------
G|--5--7--7-----7--------------7--5-----
D|--------------------------------------
A|--------------------------------------
E|--------------------------------------

then you begin to make it better

E|-----------------------------------------
B|-----------------------------------------
G|-----------7--5-----5--------------------
D|-----5--7--------------8--7--------------
A|--8--------------------------7--8--8-----
E|-----------------------------------------

and any time you feel the pain
E|--------------------------
B|-----6--------------------
G|--5-----8--7--5--5-----7--
D|--------------------8-----
A|--------------------------
E|--------------------------

hey jude refrain dont carry the pain upon your shoulder
E|-----------------------------------------------
B|--6-----6--------6-----------------------------
G|-----7--------------7--5-----5--7--5-----------
D|-----------8--------------8-----------8--7-----
A|--------------------------------------------8--
E|-----------------------------------------------

for well you know thats a fool 
E|-----------------------------
B|-----6--3--3-----------3-----
G|-----------------5--3--------
D|--3--------------------------
A|-----------------------------
E|-----------------------------

who plays it cool by making this world a little colder

E|--------------------------------------------------
B|--6-----6--------6--------------------------------
G|-----7--------------7--5-----5--7--5--------------
D|-----------8--------------8-----------8--7--5-----
A|-----------------------------------------------8--
E|--------------------------------------------------


tabs and chords, guitar tabs, music transcription, music technology, deep learning, music information retrieval, transcribe into tabs & chords, chordify, music renditions, songsterr, reverbnation, tabulature, bollywood chords, ultimate guitar, yousician, guitar lessons, acoustic guitar, electric guitar, guitar tuner, 911 tabs