Guitar Tabs for Heroes Die Young (lead Guitar)

(/) Slide Up  (\) Slide Down  (h) Hammer On  (p) Pull Off  (b) Bend (r) Release (v) Vibrato (x) Muted

Distorted Guitar Throughout

*Wait 8 Measures And Come In When The Vocals Do*

Verse 1:
I see the wolrd through these bloodshot eyes,
I look upon it all with such disdain,
E|-----7--------5--------8--------5--------7--------5--------8--------5--
B|--5--------5--------5--------5--------5--------5--------5--------5-----
G|-----------------------------------------------------------------------
D|-----------------------------------------------------------------------
A|-----------------------------------------------------------------------
E|-----------------------------------------------------------------------
And as the world falls to darkness anyway,
I realize that you're the only one I want to save,
E|-----7--------5--------8--------5--------7--------5--------8--------5--
B|--5--------5--------5--------5--------5--------5--------5--------5-----
G|-----------------------------------------------------------------------
D|-----------------------------------------------------------------------
A|-----------------------------------------------------------------------
E|-----------------------------------------------------------------------
Cause I can see all the pain and the thing behind those world weary eyes,
Past the skin to the pure soul underneath,
E|-----7--------5--------8--------5--------7--------5--------8--------5--
B|--5--------5--------5--------5--------5--------5--------5--------5-----
G|-----------------------------------------------------------------------
D|-----------------------------------------------------------------------
A|-----------------------------------------------------------------------
E|-----------------------------------------------------------------------
We could take on the world and I could be your superhero,
If only life were that simple especially yours or mine,
E|-----7--------5--------8--------5--------7--------5--------8--------5--
B|--5--------5--------5--------5--------5--------5--------5--------5-----
G|-----------------------------------------------------------------------
D|-----------------------------------------------------------------------
A|-----------------------------------------------------------------------
E|-----------------------------------------------------------------------

Pre-Chorus:
And so I'll stand here in the darkness on my own,
E|--------------------------------------------------------------------------------------------
B|--------------------------------------------------------------------------------------------
G|-----------------------------------------------------2--2-----2--2-----2--2--2--2-----2--2--
D|--3--3--3--3--3--3--3--3--3--3--3--3--3--3--3--3-----2--2-----2--2-----2--2--2--2-----2--2--
A|--3--3--3--3--3--3--3--3--3--3--3--3--3--3--3--3-----0--0-----0--0-----0--0--0--0-----0--0--
E|--1--1--1--1--1--1--1--1--1--1--1--1--1--1--1--1--------------------------------------------
I'll stand fighting for the dawn that never comes,
E|--------------------------------------------------------------------------------------------
B|--------------------------------------------------------------------------------------------
G|-----------------------------------------------------2--2-----2--2-----2--2--2--2-----2--2--
D|--3--3--3--3--3--3--3--3--3--3--3--3--3--3--3--3-----2--2-----2--2-----2--2--2--2-----2--2--
A|--3--3--3--3--3--3--3--3--3--3--3--3--3--3--3--3-----0--0-----0--0-----0--0--0--0-----0--0--
E|--1--1--1--1--1--1--1--1--1--1--1--1--1--1--1--1--------------------------------------------
I would save the world a thousand times to keep you by my side,
E|--------------------------------------------------------------------------------------------
B|--------------------------------------------------------------------------------------------
G|-----------------------------------------------------2--2-----2--2-----2--2--2--2-----2--2--
D|--3--3--3--3--3--3--3--3--3--3--3--3--3--3--3--3-----2--2-----2--2-----2--2--2--2-----2--2--
A|--3--3--3--3--3--3--3--3--3--3--3--3--3--3--3--3-----0--0-----0--0-----0--0--0--0-----0--0--
E|--1--1--1--1--1--1--1--1--1--1--1--1--1--1--1--1--------------------------------------------
I can be your hero my dear but one thing you need to know,
E|-----------------------------------------------------------------------------
B|-----------------------------------------------------------------------------
G|-----------------------------------------------------------------------------
D|--3--3--3--3--3--3--3--3--3--3--3--3--3--3--3--3--5--5--5--5--5--5--5--5--5--
A|--3--3--3--3--3--3--3--3--3--3--3--3--3--3--3--3--5--5--5--5--5--5--5--5--5--
E|--1--1--1--1--1--1--1--1--1--1--1--1--1--1--1--1--3--3--3--3--3--3--3--3--3--

Chorus:
Good heroes die young,
E|--------------------------------------------------------------------------------------------------
B|--------------------------------------------------------------------------------------------------
G|--2--2--2--2--2--2--2--2--2--2--2--2--2--2--2--2--5--5--5--5--5--5--5--5--7--7--7--7--7--7--7--7--
D|--2--2--2--2--2--2--2--2--2--2--2--2--2--2--2--2--5--5--5--5--5--5--5--5--7--7--7--7--7--7--7--7--
A|--0--0--0--0--0--0--0--0--0--0--0--0--0--0--0--0--3--3--3--3--3--3--3--3--5--5--5--5--5--5--5--5--
E|--------------------------------------------------------------------------------------------------
Good heroes die young,
Good heroes die young,
E|--------------------------------------------------------------------------------------------------
B|--------------------------------------------------------------------------------------------------
G|--2--2--2--2--2--2--2--2--2--2--2--2--2--2--2--2--5--5--5--5--5--5--5--5--7--7--7--7--7--7--7--7--
D|--2--2--2--2--2--2--2--2--2--2--2--2--2--2--2--2--5--5--5--5--5--5--5--5--7--7--7--7--7--7--7--7--
A|--0--0--0--0--0--0--0--0--0--0--0--0--0--0--0--0--3--3--3--3--3--3--3--3--5--5--5--5--5--5--5--5--
E|--------------------------------------------------------------------------------------------------

*Let Last Note Ring Until You Come Back In For The Next Verse*

Verse 2:
Maybe it was all the things we didn't do
Maybe it was all the things we shouldn't have said,
E|-----7--------5--------8--------5--------7--------5--------8--------5--
B|--5--------5--------5--------5--------5--------5--------5--------5-----
G|-----------------------------------------------------------------------
D|-----------------------------------------------------------------------
A|-----------------------------------------------------------------------
E|-----------------------------------------------------------------------
Perhaps it's simply that you mean enough to me,
To keep me from giving my life so easily,
E|-----7--------5--------8--------5--------7--------5--------8--------5--
B|--5--------5--------5--------5--------5--------5--------5--------5-----
G|-----------------------------------------------------------------------
D|-----------------------------------------------------------------------
A|-----------------------------------------------------------------------
E|-----------------------------------------------------------------------
Cause in this world that never ceases to bleed,
There's always someone looking for a fight,
E|-----7--------5--------8--------5--------7--------5--------8--------5--
B|--5--------5--------5--------5--------5--------5--------5--------5-----
G|-----------------------------------------------------------------------
D|-----------------------------------------------------------------------
A|-----------------------------------------------------------------------
E|-----------------------------------------------------------------------
All the time there's a tyrant looking out across the Earth,
Seeking things that one man should never have,
E|-----7--------5--------8--------5--------7--------5--------8--------5--
B|--5--------5--------5--------5--------5--------5--------5--------5-----
G|-----------------------------------------------------------------------
D|-----------------------------------------------------------------------
A|-----------------------------------------------------------------------
E|-----------------------------------------------------------------------

Pre-Chorus:
And so I'll stand here in the darkness on my own,
E|--------------------------------------------------------------------------------------------
B|--------------------------------------------------------------------------------------------
G|-----------------------------------------------------2--2-----2--2-----2--2--2--2-----2--2--
D|--3--3--3--3--3--3--3--3--3--3--3--3--3--3--3--3-----2--2-----2--2-----2--2--2--2-----2--2--
A|--3--3--3--3--3--3--3--3--3--3--3--3--3--3--3--3-----0--0-----0--0-----0--0--0--0-----0--0--
E|--1--1--1--1--1--1--1--1--1--1--1--1--1--1--1--1--------------------------------------------
I'll stand fighting for the dawn that never comes,
E|--------------------------------------------------------------------------------------------
B|--------------------------------------------------------------------------------------------
G|-----------------------------------------------------2--2-----2--2-----2--2--2--2-----2--2--
D|--3--3--3--3--3--3--3--3--3--3--3--3--3--3--3--3-----2--2-----2--2-----2--2--2--2-----2--2--
A|--3--3--3--3--3--3--3--3--3--3--3--3--3--3--3--3-----0--0-----0--0-----0--0--0--0-----0--0--
E|--1--1--1--1--1--1--1--1--1--1--1--1--1--1--1--1--------------------------------------------
I would save the world a thousand times to keep you by my side,
E|--------------------------------------------------------------------------------------------
B|--------------------------------------------------------------------------------------------
G|-----------------------------------------------------2--2-----2--2-----2--2--2--2-----2--2--
D|--3--3--3--3--3--3--3--3--3--3--3--3--3--3--3--3-----2--2-----2--2-----2--2--2--2-----2--2--
A|--3--3--3--3--3--3--3--3--3--3--3--3--3--3--3--3-----0--0-----0--0-----0--0--0--0-----0--0--
E|--1--1--1--1--1--1--1--1--1--1--1--1--1--1--1--1--------------------------------------------
I can be your hero my dear but one thing you need to know,
E|-----------------------------------------------------------------------------
B|-----------------------------------------------------------------------------
G|-----------------------------------------------------------------------------
D|--3--3--3--3--3--3--3--3--3--3--3--3--3--3--3--3--5--5--5--5--5--5--5--5--5--
A|--3--3--3--3--3--3--3--3--3--3--3--3--3--3--3--3--5--5--5--5--5--5--5--5--5--
E|--1--1--1--1--1--1--1--1--1--1--1--1--1--1--1--1--3--3--3--3--3--3--3--3--3--

Chorus:
Good heroes die young,
E|--------------------------------------------------------------------------------------------------
B|--------------------------------------------------------------------------------------------------
G|--2--2--2--2--2--2--2--2--2--2--2--2--2--2--2--2--5--5--5--5--5--5--5--5--7--7--7--7--7--7--7--7--
D|--2--2--2--2--2--2--2--2--2--2--2--2--2--2--2--2--5--5--5--5--5--5--5--5--7--7--7--7--7--7--7--7--
A|--0--0--0--0--0--0--0--0--0--0--0--0--0--0--0--0--3--3--3--3--3--3--3--3--5--5--5--5--5--5--5--5--
E|--------------------------------------------------------------------------------------------------
Good heroes die young,
Good heroes die young,
E|--------------------------------------------------------------------------------------------------
B|--------------------------------------------------------------------------------------------------
G|--2--2--2--2--2--2--2--2--2--2--2--2--2--2--2--2--5--5--5--5--5--5--5--5--7--7--7--7--7--7--7--7--
D|--2--2--2--2--2--2--2--2--2--2--2--2--2--2--2--2--5--5--5--5--5--5--5--5--7--7--7--7--7--7--7--7--
A|--0--0--0--0--0--0--0--0--0--0--0--0--0--0--0--0--3--3--3--3--3--3--3--3--5--5--5--5--5--5--5--5--
E|--------------------------------------------------------------------------------------------------

Bridge: Let Each Note Ring Out Until The Last Set Of Notes, The Last Of Which Is Stacatto
Good heroes,
Good heroes,
Good heroes,
Good heroes die young,
Heroes heroes,
Heroes heroes,
Heroes heroes,
E|--------------------------------------------------------------------------------
B|--------------------------------------------------------------------------------
G|--2--------2--------5--------7--------2--------2--------5--------7--7--7--7--7--
D|--2--------2--------5--------7--------2--------2--------5--------7--7--7--7--7--
A|--0--------0--------3--------5--------0--------0--------3--------5--5--5--5--5--
E|--------------------------------------------------------------------------------

Chorus:
Good heroes die young,
E|--------------------------------------------------------------------------------------------------
B|--------------------------------------------------------------------------------------------------
G|--2--2--2--2--2--2--2--2--2--2--2--2--2--2--2--2--5--5--5--5--5--5--5--5--7--7--7--7--7--7--7--7--
D|--2--2--2--2--2--2--2--2--2--2--2--2--2--2--2--2--5--5--5--5--5--5--5--5--7--7--7--7--7--7--7--7--
A|--0--0--0--0--0--0--0--0--0--0--0--0--0--0--0--0--3--3--3--3--3--3--3--3--5--5--5--5--5--5--5--5--
E|--------------------------------------------------------------------------------------------------
Good heroes die young,
E|--------------------------------------------------------------------------------------------------
B|--------------------------------------------------------------------------------------------------
G|--2--2--2--2--2--2--2--2--2--2--2--2--2--2--2--2--5--5--5--5--5--5--5--5--7--7--7--7--7--7--7--7--
D|--2--2--2--2--2--2--2--2--2--2--2--2--2--2--2--2--5--5--5--5--5--5--5--5--7--7--7--7--7--7--7--7--
A|--0--0--0--0--0--0--0--0--0--0--0--0--0--0--0--0--3--3--3--3--3--3--3--3--5--5--5--5--5--5--5--5--
E|--------------------------------------------------------------------------------------------------
Good heroes die young,
E|--------------------------------------------------------------------------------------------------
B|--------------------------------------------------------------------------------------------------
G|--2--2--2--2--2--2--2--2--2--2--2--2--2--2--2--2--5--5--5--5--5--5--5--5--7--7--7--7--7--7--7--7--
D|--2--2--2--2--2--2--2--2--2--2--2--2--2--2--2--2--5--5--5--5--5--5--5--5--7--7--7--7--7--7--7--7--
A|--0--0--0--0--0--0--0--0--0--0--0--0--0--0--0--0--3--3--3--3--3--3--3--3--5--5--5--5--5--5--5--5--
E|--------------------------------------------------------------------------------------------------
Good heroes die young,
E|--------------------------------------------------------------------------------------------------
B|--------------------------------------------------------------------------------------------------
G|--2--2--2--2--2--2--2--2--2--2--2--2--2--2--2--2--5--5--5--5--5--5--5--5--7--7--7--7--7--7--7--7--
D|--2--2--2--2--2--2--2--2--2--2--2--2--2--2--2--2--5--5--5--5--5--5--5--5--7--7--7--7--7--7--7--7--
A|--0--0--0--0--0--0--0--0--0--0--0--0--0--0--0--0--3--3--3--3--3--3--3--3--5--5--5--5--5--5--5--5--
E|--------------------------------------------------------------------------------------------------
Good heroes die young....
E|-----------------
B|-----------------
G|--2--------------
D|--2--------------
A|--0--------------
E|-----------------
tabs and chords, guitar tabs, music transcription, music technology, deep learning, music information retrieval, transcribe into tabs & chords, chordify, music renditions, songsterr, reverbnation, tabulature, bollywood chords, ultimate guitar, yousician, guitar lessons, acoustic guitar, electric guitar, guitar tuner, 911 tabs